top separator

Home

Forum

What's New

Submit a Tab

FAQ

Links

Contact Us

Link to Us

MetalTabs.com logo

Bands

0-9

A

B

C

D

E

F

G

H

I

J

K

L

M

N

O

P

Q

R

S

T

U

V

W

X

Y

Z

Search

What

Where
 

Bongzilla - "Stone A Pig" Guitar Tab

Plain Text Version
More Bongzilla Tabs

Hits: 5140
Rated: 3.00 out of 5 (1 vote)
Updated: 2005-06-16 15:19:35

 

By:

sendpm.gif

email.gif

Important note
We did our best to reach Bongzilla and ask for their permission to publish this tab. Unfortunately they did not respond to our requests or we could not find a way to contact them. This tab is available online until Bongzilla tells us to take it down.


#----------------------------------PLEASE NOTE---------------------------------#
#This file is the author's own work and represents their interpretation of the #
#song. You may only use this file for private study, scholarship, or research. #
#Unless specified otherwise, this is NOT an official tab from the band members.#
#------------------------------------------------------------------------------#

  Visit MetalTabs.com for more metal tablature
  
Band:  Bongzilla
Album: Gateway
Song:  Stone a Pig

Copyright (c)  Relapse 2002

Transcribed By: murv
Email:          crescendo_of_Craving@hotmail.com

Tuning D A D G B E

e|------------------------|
B|------------------------|
G|------------------------|
D|------------------------|
A|------------------------|
D|--5--3--5--6--5--3--0---|x2

e|---------------------------------|
B|---------------------------------|
G|---------------------------------|
D|--55--33--55--66--55--33--0000---|
A|--55--33--55--66--55--33--0000---|
D|--55--33--55--66--55--33--0000---|x4

Bass
e|--------------------------------------------|
B|--------------------------------------------|
G|--------------------------------------------|
D|--------------------------------------------|
A|--------------------------------------------|
D|-0-030-00-356---0-030-00-356--5-55-333-000--|x2


e|--------------------------------------------|
B|--------------------------------------------|
G|--------------------------------------------|
D|-0-030-00-356---0-030-00-356--555-333-0000--|
A|-0-030-00-356---0-030-00-356--555-333-0000--|
D|-0-030-00-356---0-030-00-356--555-333-0000--|x2


e|---------------------------------|
B|---------------------------------|
G|---------------------------------|
D|--555-333-555-666-555-333-0000---|
A|--555-333-555-666-555-333-0000---|
D|--555-333-555-666-555-333-0000---|x6


e|--------------------------------------------|-----------|-----------|
B|--------------------------------------------|-----------|-----------|
G|--------------------------------------------|-----------|-----------|
D|--------------------------------------------|-----------|---3--8--7-|
A|--------------------------------------------|-----------|---3--8--7-|
D|--5--5--8--3---5--5--8--3-0-3---5--5--8--3--|1.-3--8--7-|2.-3--8--7-|x2


e|------------------------------------------------------------|
B|------------------------------------------------------------|
G|------------------------------------------------------------|
D|--555-555-888-333--555-555-888-303--555-555-888-333--3-8-7--|
A|--555-555-888-333--555-555-888-303--555-555-888-333--3-8-7--|
D|--555-555-888-333--555-555-888-303--555-555-888-333--3-8-7--|x4


e|--------------------------------------------|-----------|-----------|
B|--------------------------------------------|-----------|-----------|
G|--------------------------------------------|-----------|-----------|
D|--------------------------------------------|-----------|---3--8--7-|
A|--------------------------------------------|-----------|---3--8--7-|
D|--5--5--8--3---5--5--8--3-0-3---5--5--8--3--|1.-3--8--7-|2.-3--8--7-|x2


e|------------------------------------------------------------|
B|------------------------------------------------------------|
G|------------------------------------------------------------|
D|--555-555-888-333--555-555-888-303--555-555-888-333--3-8-7--|
A|--555-555-888-333--555-555-888-303--555-555-888-333--3-8-7--|
D|--555-555-888-333--555-555-888-303--555-555-888-333--3-8-7--|x7


e|----------------|
B|----------------|
G|----------------|
D|----------------|
A|----------------|
D|--5~-5~-5~-3~3~-|x12


e|--------------------|
B|--------------------|
G|--------------------|
D|--555-555-555--3-3--|
A|--555-555-555--3-3--|
D|--555-555-555--3-3--|x13


e|----------------|
B|----------------|
G|----------------|
D|----------------|
A|----------------|
D|--5~-5~-5~-3~3~-|x4

e|----------------|
B|----------------|
G|----------------|
D|----------------|
A|----------------|
D|--5~~~----------|


END

  Visit MetalTabs.com for more metal tablature

bottom separator

Contact Us | Privacy Policy | Disclaimer | Legal Notice
Copyright © 2001-2014 MetalTabs.com. All Rights Reserved.