top separator

Home

Forum

What's New

Submit a Tab

FAQ

Links

Contact Us

Link to Us

MetalTabs.com logo

Bands

0-9

A

B

C

D

E

F

G

H

I

J

K

L

M

N

O

P

Q

R

S

T

U

V

W

X

Y

Z

Search

What

Where
 

Kyuss - "El Rodeo" Guitar Tab

Plain Text Version
More Kyuss Tabs

Hits: 4888
Rated: 3.50 out of 5 (4 votes)
Updated: 2005-06-16 15:17:05

 

By:

longinvs

sendpm.gif

email.gif

Important note
We did our best to reach Kyuss and ask for their permission to publish this tab. Unfortunately they did not respond to our requests or we could not find a way to contact them. This tab is available online until Kyuss tells us to take it down.


#----------------------------------PLEASE NOTE---------------------------------#
#This file is the author's own work and represents their interpretation of the #
#song. You may only use this file for private study, scholarship, or research. #
#Unless specified otherwise, this is NOT an official tab from the band members.#
#------------------------------------------------------------------------------#

  Visit MetalTabs.com for more metal tablature
  
Band:  Kyuss
Album: ...And the Circus Leaves Town
Song:  El Rodeo

Copyright (c)  (Wea / Elektra Entertainment) (1995)
Version 1.0 - (06/04/05)

Transcribed By: longinvs
Email:          longinvs@gmail.com


.  - palm mute           /  - slide up to
\  - slide down to       ~  - vibrato
h  - hammer on           b  - Bend
p  - pull off            Suffixes for bend
t  - tap                 f  - full bend    h - half bend
ph - pinched harmonic    q  - quarter bend t - tap bend
*  - see comment         ^  - Hold bend    r release bend
x  - Stuccatto           ~  - vibrato bend
,  - slight palm mute    () - ghost note, sustained note
"  - tremolo note        <> - Trill

Tunning C F Bb Eb G C

Note: Variations 2 and 3 are only played once and I'm assuming you can
      figure out where to play them.

Intro variation 1
|---------------------------------------------------------------------|
|--12~-12-13-15-13-12-13-12--12-11------------------------------------|
|----------------------------------7--7-7-7-7-12-9--------------------|
|---------------------------------------------------------------------|
|---------------------------------------------------------------------|
|---------------------------------------------------------------------|

Intro variation 2
|-----------------------------------12--------------------------------|
|--12~-12-13-15-13-12-13-12--12-11------------------------------------|
|--------------------------------------7-7-7-7-12-9-------------------|
|---------------------------------------------------------------------|
|---------------------------------------------------------------------|
|---------------------------------------------------------------------|

Intro variation 3
|-------------------------------------12--12--------------------------|
|--12~-12-13-15-13-12-13-12--12-11--12--12----------------------------|
|--------------------------------------------7-7-7-7-12-9-------------|
|---------------------------------------------------------------------|
|---------------------------------------------------------------------|
|---------------------------------------------------------------------|

Transition
|----------------------------|
|----------------------------|
|---9-9-9-9-9-x-9-9-9-9-9----|
|---9-9-9-9-9-x-9-9-9-9-9----|
|---7-7-7-7-7-x-7-7-7-7-7----|
|----------------------------|

Verse
|-----------------------------------------|
|--8------10/6----------------------------|
|--7------9-/5------9----------9----------|
|--5(x10)-7-/3(x9)--9(x16)--2/-9(x16)--2--|
|--5------7-/3------7-------2/-7-------2--|
|---------------------------0/---------0--|

Note: The rest of the song is just variations strumming variations of the
      verse so it isn't needed to tab the rest out.

  Visit MetalTabs.com for more metal tablature

bottom separator

Contact Us | Privacy Policy | Disclaimer | Legal Notice
Copyright © 2001-2014 MetalTabs.com. All Rights Reserved.