top separator

Home

Forum

What's New

Submit a Tab

FAQ

Links

Contact Us

Link to Us

MetalTabs.com logo

Bands

0-9

A

B

C

D

E

F

G

H

I

J

K

L

M

N

O

P

Q

R

S

T

U

V

W

X

Y

Z

Search

What

Where
 

Burnt by the Sun - "Dow Jones And The Temple Of Doom" Guitar Tab

Plain Text Version
More Burnt by the Sun Tabs

Hits: 3982
Rated: 1.00 out of 5 (2 votes)
Updated: 2005-06-08 16:18:21

 

By:

Woutjinho

sendpm.gif

email.gif

Important note
This tab is available online because we obtained explicit permission from Burnt by the Sun or their label.


#----------------------------------PLEASE NOTE---------------------------------#
#This file is the author's own work and represents their interpretation of the #
#song. You may only use this file for private study, scholarship, or research. #
#Unless specified otherwise, this is NOT an official tab from the band members.#
#------------------------------------------------------------------------------#

  Visit MetalTabs.com for more metal tablature
  
Band:  Burnt Bu The Sun
Album: Soundtrack To The Personal Revolution
Song:  Dow Jones And The Temple Of Doom

Copyright (c)  Relapse Records 2002
Version 1.0 - 4-06'05

Transcribed By: Woutjinho
Email:          woutjinho@hotmail.com


.  - palm mute           /  - slide up to
\  - slide down to       ~  - vibrato
h  - hammer on           b  - Bend
p  - pull off            Suffixes for bend
t  - tap                 f  - full bend    h - half bend
ph - pinched harmonic    q  - quarter bend t - tap bend
*  - see comment         ^  - Hold bend    r release bend
x  - Stuccatto           ~  - vibrato bend
,  - slight palm mute    () - ghost note, sustained note
"  - tremolo note        <> - Trill

Tuning D G C F A D

 Intro
  Q=152
  E   C              E   C              E
 1/8 9/8
                  ~                  ~
|---|------------------|------------------|
|---|------------------|------------------|
|---|--------/9--------|--------\9--------|
|---|------9----7------|------9----7------|
|-7-|-8--7--------5--7-|-8--7--------5--7-|
|-0-|-0--------------0-|-0--------------0-|


  C              E   C              E
              ~                  ~
|------------------|-------------------|
|------------------|-------------------|
|--------/9--------|--------\9---------|
|------9----7------|------9----7-------|
|-8--7--------5--7-|-8--7--------5--7--|
|-0--------------0-|-0--------------0--|


  F5/E            E5  F5/E            E   C              E   C              E
               ~                   ~                  ~                  ~
|-------------------|-------------------|------------------|------------------|
|-------------------|-------------------|------------------|------------------|
|---------/9---7----|---------/9---7----|--------/9--------|--------\9--------|
|-10----9----7----9-|-10----9----7------|------9----7------|------9----7------|
|--8--7-----------7-|--8--7-----------7-|-8--7--------5--7-|-8--7--------5--7-|
|--0--------------0-|--0--------------0-|-0--------------0-|-0--------------0-|
|
|              ~                   ~                  ~                  ~  PM
|-------------------|-------------------|------------------|------------------|
|-------------------|-------------------|------------------|------------------|
|---------/9--------|---------/9--------|--------/9--------|--------\9--------|
|-10----9----7----9-|-10----9----7------|------9----7------|------9----7------|
|--8--7--------5--7-|--8--7--------5--7-|-8--7--------5--7-|-8--7--------5--7-|
|--0--------------0-|--0--------------0-|-0--------------0-|-0--------------0-|


   Verse
    Q=138
    C                            E   C                            E
                                 PM                               PM
                                                                     4x
||---------------------------------|---------------------------------||
||o--------------------------------|--------------------------------o||
||---------------------------------|---------------------------------||
||----------10-10-10---------------|---------10-10-10----------------||
||o-8-8-8-8----------------7-7-7-7-|-8-8-8-8----------------7-7-7-7-o||
||--0----------------0-0-0-------0-|-0----------------0-0-0-------0--||


 Verse
  Q=152
  C                                                                   F5/E
 3/4
|------------------|------------------|------------------|--------------------|
|------------------|------------------|------------------|--------------------|
|------------------|------------------|------------------|--------------------|
|------------------|------------------|------------------|------------10------|
|-8----------8-----|-8----------8-----|-8----------8-----|-8-----------8------|
|-0--5-5-0-0-0-0-0-|-0--5-5-0-0-0-0-0-|-0--5-5-0-0-0-0-0-|-0--5-5-8-8--0-0-0--|


                                     E5
||---------------------|-------------------|
||o--------------------|-------------------|
||---------------------|-------------------|
||--10----------10-----|-10----------9-----|
||o--8-----------8-----|--8----------7-----|
||---0--5-5-8-8--0-0-0-|--0--5-5-7-7-0-0-0-|


                     Em         E5
|------------------|-7-----------------|
|------------------|-8-----------------|
|------------------|-9-----------------|
|-9----------9-----|-9----------9------|
|-7----------7-----|-7----------7------|
|-0--5-5-7-7-0-0-0-|-0--5-5-7-7-0-0-0--|


                                                                      F5/E
|------------------|------------------|------------------|--------------------||
|------------------|------------------|------------------|-------------------o||
|------------------|------------------|------------------|--------------------||
|-9----------9-----|-9----------9-----|-9----------9-----|-9----------10------||
|-7----------7-----|-7----------7-----|-7----------7-----|-7-----------8-----o||
|-0--5-5-7-7-0-0-0-|-0--5-5-7-7-0-0-0-|-0--5-5-7-7-0-0-0-|-0--5-5-8-8--0-0-0--||


                                   E5
                                          4/4
|--------------------|-------------------|---------------------|
|--------------------|-------------------|---------------------|
|--------------------|-------------------|------------------9--|
|-10----------10-----|-10----------9-----|-9----------9-----9--|
|--8-----------8-----|--8----------7-----|-7----------7-----7--|
|--0--5-5-8-8--0-0-0-|--0--5-5-7-7-0-0-0-|-0--5-5-7-7-0-0-0-0--|


   Interlude
    E
   4/4
       PM|                  PM|
                                             4x
||---------------------|---------------------||
||o--------------------|--------------------o||
||---------------------|---------------------||
||---------------------|---------------------||
||o-7------/7-9-7-/7-9-|-7------/7-9-7-/7-9-o||
||--0--0-0------0------|-0--0-0------0-------||


  E5    F5/E   E5
 9/8
    PM|    PM|   PM|   PM------|   PM|   PM|   PM--|
|--------------------------|-------------------------|
|--------------------------|-------------------------|
|-9-----10-----9-----9-----|-----9-----9-----9-------|
|-9-----10-----9-----9-----|-----9-----9-----9-------|
|-7------8-----7-----7-----|-----7-----7-----7-------|
|-0-0-0--0-0-0-0-0-0-0-0-0-|-0-0-0-0-0-0-0-0-0-0-0-0-|


                F5/E   E5
  PM----|   PM|    PM|   PM------|   PM|   PM|   PM|
|--------------------------|-------------------------|
|--------------------------|-------------------------|
|---------9-----10-----9---|-------9-----9-----9-----|
|---------9-----10-----9---|-------9-----9-----9-----|
|---------7------8-----7---|-------7-----7-----7-----|
|-0-0-0-0-0-0-0--0-0-0-0-0-|-0-0-0-0-0-0-0-0-0-0-0-0-|


    N.C.
   4/4
||----------------------------------------|
||o---------------------------------------|
||--9-9-----10-10-----11-11-7-7-12-12-7-7-|
||------7-7-------7-7---------------------|
||o---------------------------------------|
||----------------------------------------|
|
||----------------------------------------|
||o---------------------------------------|
||----------------------------------------|
||----------------------------------------|
||o-7-7-0-0--8--8-0-0--9--9-5-5-10-10-5-5-|
||----------------------------------------|


|----------------------------------------||
|---------------------------------------o||
|-9-9-----10-10-----11-11-7-7-12-12-7-7--||
|-----7-7-------7-7----------------------||
|---------------------------------------o||
|----------------------------------------||
|
|----------------------------------------||
|---------------------------------------o||
|----------------------------------------||
|----------------------------------------||
|-7-7-0-0--8--8-0-0--9--9-5-5-10-10-5-5-o||
|----------------------------------------||


 Interlude
 3/4
  PM------------------------------------------------------------------|
|-----------------|-----------------|-----------------|------------------|
|-----------------|-----------------|-----------------|------------------|
|-----------------|-----------------|-----------------|------------------|
|-----------------|-----------------|-----------------|------------------|
|-0-0-8-8-0-0-8-8-|-0-0-8-8-0-0-8-8-|-0-0-7-7-0-0-7-7-|-0-0-7-7-0-0-7-7--|
|-----------------|-----------------|-----------------|------------------|
|
|                                     PM------------------------------|
|-----------------|-----------------|-----------------|------------------|
|-----------------|-----------------|-----------------|------------------|
|-----------------|-----------------|-----------------|------------------|
|-----------------|-----------------|-----------------|------------------|
|-----------------|-----------------|-0-0-7-7-0-0-7-7-|-0-0-7-7-0-0-7-7--|
|-----------------|-----------------|-----------------|------------------|


    PM------------------------------------------------------------------|
||------------------|-----------------|-----------------|-------------------||
||o-----------------|-----------------|-----------------|------------------o||
||------------------|-----------------|-----------------|-------------------||
||------------------|-----------------|-----------------|-------------------||
||o-0-0-8-8-0-0-8-8-|-0-0-8-8-0-0-8-8-|-0-0-7-7-0-0-7-7-|-0-0-7-7-0-0-7-7--o||
||------------------|-----------------|-----------------|-------------------||


        F5
    PM|       PM|         PM|       PM|
||----------------------|---------------------|
||o---------------------|---------------------|
||------10-10-----10-10-|-----10-10-----10-10-|
||----------------------|---------------------|
||o-0-0-------0-0-------|-0-0-------0-0-------|
||----------------------|---------------------|
|
|   PM|       PM|         PM|       PM|
||----------------------|---------------------|
||o---------------------|---------------------|
||----------------------|---------------------|
||------10-10-----10-10-|-----10-10-----10-10-|
||o-0-0--8--8-0-0--8--8-|-0-0--8--8-0-0--8--8-|
||----------------------|---------------------|


      E5
  PM|     PM|       PM|     PM|
|-----------------|-------------------||
|-----------------|------------------o||
|-----9-9-----9-9-|-----9-9-----9-9---||
|-----------------|-------------------||
|-0-0-----0-0-----|-0-0-----0-0------o||
|-----------------|-------------------||
|
| PM|     PM|       PM|     PM|
|-----------------|-------------------||
|-----------------|------------------o||
|-----------------|-------------------||
|-----9-9-----9-9-|-----9-9-----9-9---||
|-0-0-7-7-0-0-7-7-|-0-0-7-7-0-0-7-7--o||
|-----------------|-------------------||


      F5                                          E5
  PM|       PM|         PM|       PM|         PM|     PM|
|---------------------|---------------------|-----------------|
|-----10-10-----10-10-|-----10-10-----10-10-|-----9-9-----9-9-|
|---------------------|---------------------|-----------------|
|---------------------|---------------------|-----------------|
|-0-0-------0-0-------|-0-0-------0-0-------|-0-0-----0-0-----|
|---------------------|---------------------|-----------------|
|
| PM|       PM|         PM|       PM|         PM|     PM|
|---------------------|---------------------|-----------------|
|---------------------|---------------------|-----------------|
|---------------------|---------------------|-----------------|
|-----10-10-----10-10-|-----10-10-----10-10-|-----9-9-----9-9-|
|-0-0--8--8-0-0--8--8-|-0-0--8--8-0-0--8--8-|-0-0-7-7-0-0-7-7-|
|---------------------|---------------------|-----------------|


|---------------------------------------------|
|-(9)b10r(9)-(9)b10r(9)-(9)b10r(9)-(9)b10r(9)-|
|---------------------------------------------|
|---------------------------------------------|
|---------------------------------------------|
|---------------------------------------------|
|
|  PM----|               PM----|
|---------------------------------------------|
|---------------------------------------------|
|---------------------------------------------|
|-------------9------9--------------9------9--|
|--0------0---7------7---0------0---7------7--|
|---------------------------------------------|


      F5                                          E5
  PM|       PM|         PM|       PM|         PM|     PM|
|---------------------|---------------------|-----------------|-----|
|-----10-10-----10-10-|-----10-10-----10-10-|-----9-9-----9-9-|-----|
|---------------------|---------------------|-----------------|-----|
|---------------------|---------------------|-----------------|-----|
|-0-0-------0-0-------|-0-0-------0-0-------|-0-0-----0-0-----|-----|
|---------------------|---------------------|-----------------|-----|
|
| PM|       PM|         PM|       PM|         PM|     PM|
|---------------------|---------------------|-----------------|-----|
|---------------------|---------------------|-----------------|-----|
|---------------------|---------------------|-----------------|-----|
|-----10-10-----10-10-|-----10-10-----10-10-|-----9-9-----9-9-|-----|
|-0-0--8--8-0-0--8--8-|-0-0--8--8-0-0--8--8-|-0-0-7-7-0-0-7-7-|-----|
|---------------------|---------------------|-----------------|-----|


    E5F5/G5 F5               E5F5/G5 F5
   4/4
                 ~~~   ~~~                ~~~   ~~~
                                                     4x
||-------------------------|-------------------------||
||o------------------------|------------------------o||
||-------------------------|-------------------------||
||--9-10-12-10-------------|-9-10-12-10--------------||
||o-7--8-10--8-0-7b9-0-7b9-|-7--8-10--8-0-7b9-0-7b9-o||
||--0--0-------------------|-0--0--------------------||


 Outro
  E5
|-----------------------------------|--------------------------------|
|-----------------------------------|--------------------------------|
|---9-9-9-10-10-10------------------|---9-9-9-10-10-10---------------|
|-9----------------9----------------|-9----------------9-------------|
|-7----------------7----------------|-7----------------7-8-8-8-7-7-7-|
|-0----------------0----------------|-0----------------0-------------|
|
|-----------------------------------|--------------------------------|
|-----------------------------------|--------------------------------|
|--------------------10-10-10-9-9-9-|---9-9-9-10-10-10---------------|
|-9----------------9----------------|-9----------------9-------------|
|-7----------------7----------------|-7----------------7-8-8-8-7-7-7-|
|-0----------------0----------------|-0----------------0-------------|


                                                                        3x
||------------------------------------|---------------------------------||
||o-----------------------------------|--------------------------------o||
||----9-9-9-10-10-10---10-10-10-9-9-9-|---9-9-9-10-10-10----------------||
||--9----------------9----------------|-9----------------9--------------||
||o-7----------------7----------------|-7----------------7-8-8-8-7-7-7-o||
||--0----------------0----------------|-0----------------0--------------||


                                   G5/E5  F5/E   E5
|-----------|--------------------|-------------|---------------*|
|-----------|--------------------|-------------|---------------*|
|-----------|--------------------|-------------|---------------*|
|-9----9----|-9----9-------------|-12-9-9-10---|-9----9--------*|
|-7----7----|-7----7-7-7-7-7-7-7-|-10-7-7--8---|-7----7--------*|
|-0----0----|-0----0-------------|--0-0-0--0---|-0----0-0-0-0--*|

  Visit MetalTabs.com for more metal tablature

bottom separator

Contact Us | Privacy Policy | Disclaimer | Legal Notice
Copyright © 2001-2014 MetalTabs.com. All Rights Reserved.