top separator

Home

Forum

What's New

Submit a Tab

FAQ

Links

Contact Us

Link to Us

MetalTabs.com logo

Bands

0-9

A

B

C

D

E

F

G

H

I

J

K

L

M

N

O

P

Q

R

S

T

U

V

W

X

Y

Z

Search

What

Where
 

Bloodbath - "The Ascension" Guitar Tab

Plain Text Version
More Bloodbath Tabs

Hits: 7250
Rated: 4.33 out of 5 (12 votes)
Updated: 2005-06-08 16:17:53

 

By:

sendpm.gif

email.gif

Important note
This tab is available online because we obtained explicit permission from Bloodbath or their label.


#----------------------------------PLEASE NOTE---------------------------------#
#This file is the author's own work and represents their interpretation of the #
#song. You may only use this file for private study, scholarship, or research. #
#Unless specified otherwise, this is NOT an official tab from the band members.#
#------------------------------------------------------------------------------#

  Visit MetalTabs.com for more metal tablature
  
BLOODBATH
NIGHTMARES MADE FLESH
THE ASCENSION
(CenturyMedia)
tabbed by slaughterlord
slaught3rlord@yahoo.gr


Riff 1
|----------------------------------------------|
|----------------------------------------------|
|----------------------------------------------|
|----------------------------------------------|
|---2--4--5--9--8----2--4--5--9--8-9-8-5-4-----|
|---0--2--3--7--6----0--2--3--7--6-7-6-3-2-----|


Riff 2 (Play each note twice)
|--------------------------------------------------|
|--------------------------------------------------|
|--------------------------------------------------|
|--------------------------------------------------|
|---3-3-3-2-2-2------------------------------------|
|---------------5-5-4-4-4-1-1-1-0-0-1-1-1-4-4-4----|

|---------------------------|
|---------------------------|
|---------------------------|
|---------------------------|
|---------------5-7-8-7-----|
|---1-1-0-0-0-0-------------|


Riff 3
|--------------------------|
|--------------------------|
|--------------------------|
|--------------------------|
|---8-7--------------------|
|-------8--5-7-5--1-4-1----|


Riff 4
|---------------------------------------------------------|
|---------------------------------------------------------|
|---------------------------------------------------------|
|---------------------------------------------------------|
|---2--4--5--9-8-9-8-5-4--5-5-5--2--4--5--9---7-10--------|
|---0--2--3--7-6-7-6-3-2--3-3-3--0--2--3--7-7------7-6----|
                          * * *

Riff 5
|--------------------------------------------------|
|--------------------------------------------------|
|--------------------------------------------------|
|--------------------------------------------------|
|-----------7/10\7---------------------------8-----|
|---0-0-0-0--------0-0-0-0-6/8\6-0-0-0-0-0-0-6-----|


Riff 6
|-----------------------------------------------|
|-----------11-10----------11-10-11-10----------|
|---9-11-12--------9-11-12-------------12-11----|
|-----------------------------------------------|
|-----------------------------------------------|
|-----------------------------------------------|




slaught3rlord@yahoo.gr

  Visit MetalTabs.com for more metal tablature

bottom separator

Contact Us | Privacy Policy | Disclaimer | Legal Notice
Copyright © 2001-2014 MetalTabs.com. All Rights Reserved.