top separator

Home

Forum

What's New

Submit a Tab

FAQ

Links

Contact Us

Link to Us

MuSpy.com

MetalTabs.com logo

Bands

0-9

A

B

C

D

E

F

G

H

I

J

K

L

M

N

O

P

Q

R

S

T

U

V

W

X

Y

Z

Search

What

Where
 

Bloodbath - "Soul Evisceration" Guitar Tab

Plain Text Version
More Bloodbath Tabs

Hits: 6247
Rated: 4.67 out of 5 (3 votes)
Updated: 2005-06-08 16:17:49

 

By:

sendpm.gif

email.gif

Important note
This tab is available online because we obtained explicit permission from Bloodbath or their label.


#----------------------------------PLEASE NOTE---------------------------------#
#This file is the author's own work and represents their interpretation of the #
#song. You may only use this file for private study, scholarship, or research. #
#Unless specified otherwise, this is NOT an official tab from the band members.#
#------------------------------------------------------------------------------#

  Visit MetalTabs.com for more metal tablature
  
BLOODBATH
NIGHTMARES MADE FLESH
SOUL EVISCERATION
(CenturyMedia)
tabbed by slaughterlord
slaught3rlord@yahoo.gr

Tuning B E A D G B

Riff 1
|------------------------------------------------------|
|------------------------------------------------------|
|------------------------------------------------------|
|------------------------------------------------------|
|------------------------------------------------------|
|---0-0-0-0-0-0-1-1-1-0-0-0-0-0-0-1-1-1-0-0-0-1-1-1----|

|------------------------------------------------------|
|------------------------------------------------------|
|------------------------------------------------------|
|------------------------------------------------------|
|------------------------------------------------------|
|---0-0-0-0-0-0-1-1-1-0-0-0-6-6-6-5-5-5-1-1-1-4-4-4----|


Riff 2
|---------------------------------------------------|
|---------------------------------------------------|
|---------------------------------------------------|
|---------------------------------------------------|
|---7-5-7-8-8-8-7-----------------------------------|
|-----------------0-0-0-0-0-0-0-0-0-0-0-0-0-0-0-----|

|--------------------------------------------------||--only-|
|--------------------------------------------------||--1st--|
|--------------------------------------------------||--time-|
|-----------------5-5-5-6-6-6----------------------||-------|
|---7-5-7-8-8-8-7-------------8-8-8----------------||-------|
|-----------------------------------0-0-0-0-0-0----||---0---|


Riff 3
|--------------------------------------------------
|--------------------------------------------------
|--------------------------------------------------
|------------------5/6\5---------------------------
|---2--2-2-2-5-2-2-------7/8\7--2--2-2-2-5-2-2-----
|---0--0-0-0-3-0-0--------------0--0-0-0-3-0-0-----

--------------------------------------------------|
--------------------------------------------------|
--------------------------------------------------|
--------------------------------------------------|
-------8-7------7-7/8\7---------------------------|
---5-7------5-7---------0-0-0-3-3-3---------------|


Riff 4
                x3                                       x1
|-----------------||---------------------------------------|
|-----------------||---------------------------------------|
|-----------------||---------------------------------------|
|-----------------||---------------------------------------|
|---5--6-5--8-7---||---5--6-5--8-8-8-7-7-7-8-8-8-7-7-7-----|
|---3--4-3--6-5---||---3--4-3--6-6-6-5-5-5-6-6-6-5-5-5-----|
                               * * * * * * * * * * * *

Riff 5
|------------------------------------------------------------------
|------------------------------------------------------------------
|------------------------------------------------------------------
|------------------------------------------------------------------
|---7-5-7-8-8-8----------------------------------------------------
|---------------0-0-0-0-0-0-1-1-1-0-0-0-0-0-0-1-1-1-0-0-0-1-1-1----

------------------------------------------------------|
------------------------------------------------------|
------------------------------------------------------|
------------------------------------------------------|
------------------------------------------------------|
---0-0-0-0-0-0-1-1-1-0-0-0-6-6-6-5-5-5-1-1-1-4-4-4----|




slaught3rlord@yahoo.gr

  Visit MetalTabs.com for more metal tablature

bottom separator

Contact Us | Privacy Policy | Disclaimer | Legal Notice
Copyright © 2001-2014 MetalTabs.com. All Rights Reserved.