top separator

Home

Forum

What's New

Submit a Tab

FAQ

Links

Contact Us

Link to Us

MuSpy.com

MetalTabs.com logo

Bands

0-9

A

B

C

D

E

F

G

H

I

J

K

L

M

N

O

P

Q

R

S

T

U

V

W

X

Y

Z

Search

What

Where
 

Cephalic Carnage - "Redundant" Guitar Tab

Plain Text Version
More Cephalic Carnage Tabs

Hits: 4120
Rated: 4.00 out of 5 (8 votes)
Updated: 2005-06-08 16:13:01

 

By:

younguitarist

sendpm.gif

email.gif

Important note
This tab is available online because we obtained explicit permission from Cephalic Carnage or their label.


#----------------------------------PLEASE NOTE---------------------------------#
#This file is the author's own work and represents their interpretation of the #
#song. You may only use this file for private study, scholarship, or research. #
#Unless specified otherwise, this is NOT an official tab from the band members.#
#------------------------------------------------------------------------------#

  Visit MetalTabs.com for more metal tablature
  
Artist: Cephalic Carnage
Album: Lucid Interval
Song: Redundant
Transcribed by:Alvaro Ramirez
Email me for any comments or corrections:lazyguitarist@walla.com
Tune guitars to B (BEADF#B)
================================================================================
Some riffs might be off because it's really hard
to hear the guitars on some parts. Enjoy!
================================================================================


.  - palm mute           /  - slide up to     ah - Artificial harmonics
\  - slide down to       ~  - vibrato         __ - Tremolo pick
h  - hammer on           b  - Bend                       \
p  - pull off            Suffixes for bend                \
t  - tap                 f  - full bend    h - half bend   \ - Dive with bar
ph - pinched harmonic    q  - quarter bend t - tap bend
*  - see comment         ^  - Hold bend    r release bend  /
x  - Staccato            ~  - vibrato bend                / - Raise with bar
,  - slight palm mute    () - ghost note, sustained note /
"  - tremolo note        <> - Trill


Intro Drums

Riff 1 guitar one
|---------------------------------------------------------------------|
|---------------------------------------------------------------------|
|-5"ah----------------------------------------------------------5"ah--|
|---------------------------------5"ah--------------------------------|
|-------------2222-1111---------------------2222-1111------3333-------|
|--------2222-----------3333-2222------2222-----------3333------------|
|        ____ ____ ____ ____ ____      ____ ____ ____ ____ ____
|      guitar two
|---------------------------------------------------------------------|
|---------------------------------------------------------------------|
|-------------4444-3333---------------------4444-3333------5555-5"ah--|
|-3"ah---4444-----------5555-4444-5"ah-4444-----------5555------------|
|---------------------------------------------------------------------|
|---------------------------------------------------------------------|
         ____ ____ ____ ____ ____      ____ ____ ____ ____ ____


Riff 2 guitar one
|--------------------------------------------------------------|
|--------------------------------------------------------------|
|--------------------------------------------------------5"ah--|
|--------------------------------------------------------------|
|------2222-1111-----------5"ah------2222-1111------3333-------|
|-2222-----------3333-2222------2222-----------3333------------|
| ____ ____ ____ ____ ____      ____ ____ ____ ____ ____
|      guitar two
|--------------------------------------------------------------|
|--------------------------------------------------------------|
|------4444-3333---------------------4444-3333------5555-5"ah--|
|-4444-----------5555-4444------4444-----------5555------------|
|--------------------------5"ah--------------------------------|
|--------------------------------------------------------------|
  ____ ____ ____ ____ ____      ____ ____ ____ ____ ____


Riff 3 guitar one
|--------------------------|------|--------------------------|
|--------------------------|------|--------------------------|
|--------------------------|------|--------------------------|
|----4---------------------|------|--------------------------|
|-4--2--5--4-4-4-4-4-4-4-4-|-4x..-|------2222----------------|
|-2-----3--2-2-2-2-2-2-2-2-|------|-2222------3333-2222-3333-|
|          . . . . . . . .          ____ ____ ____ ____ ____
|       guitar two
|--------------------------|------|--------------------------|
|--------------------------|------|--------------------------|
|--------------------------|------|--------------------------|
|----4---------------------|------|--------------------------|
|-4--2--5--4-4-4-4-4-4-4-4-|-4x..-|------2222----------------|
|-2-----3--2-2-2-2-2-2-2-2-|------|-2222------3333-2222-4"ah-|
           . . . . . . . .          ____ ____ ____ ____ ____


Riff 4 guitar one
|-----------------------------------------------------------------------5"ah-|
|----------------------------------------------------------------------------|
|---------------------5"ah---------------------------------------------------|
|----------------------------------------------------------------------------|
|------2222-1111----------------2222---------------------2222-1111-----------|
|-2222-----------3333------2222------3333-2222-3333-2222-----------3333------|
| ____ ____ ____ ____      ____ ____ ____ ____ ____ ____ ____ ____ ____
|      guitar two
|----------------------------------------------------------------------------|
|----------------------------------------------------------------------------|
|----------------------------------------------------------------------------|
|----------------------------------------------------------------------------|
|------2222-1111------5"ah------2222---------------------2222-1111-----------|
|-2222-----------3333------2222------3333-2222-4"ah-2222-----------3333-4"ah-|
  ____ ____ ____ ____      ____ ____ ____ ____ ____ ____ ____ ____ ____

Riff 5 guitar one
|------------------------------------------------------------------|
|------------------------------------------------------------------|
|------------------------------------------------------------------|
|--------------------------------------6-5---8-7-6---8-7-6---------|
|----------------------------------5-6-4-3-8-6-5-4-6-6-5-4-5-6-8-7-|
|----------------------------------3-4-----6-------4-------3-4-6-5-|
|                                  . . . . . . . . . . . . . . . .
|      guitar two
|------------------------------------------------------------------|
|------------------------------------------------------------------|
|------------------------------------------------------------------|
|-----6-5---8-7-6---8-7-6--------------6-5---8-7-6---8-7-6---------|
|-5-6-4-3-8-6-5-4-6-6-5-4-5-6-8-7--5-6-4-3-8-6-5-4-6-6-5-4-5-6-8-7-|
|-3-4-----6-------4-------3-4-6-5--3-4-----6-------4-------3-4-6-5-|
  . . . . . . . . . . . . . . . .  . . . . . . . . . . . . . . . .


Riff 6 both guitars
|------------------------------------------------------------------|
|------------------------------------------------------------------|
|------------------------------------------------------------------|
|-----6-5---8-7-6---8-7-6--------------6-5---8-7-6---8-7-6---------|2x
|-5-6-4-3-8-6-5-4-6-6-5-4-5-6-8-7--5-6-4-3-8-6-5-4-6-6-5-4-5-6-8-7-|
|-3-4-----6-------4-------3-4-6-5--3-4-----6-------4-------3-4-6-5-|
  . . . . . . . . . . . . . . . .  . . . . . . . . . . . . . . . .


Riff 7 both guitars
|------------------------------------------------------|
|------------------------------------------------------|
|------------------------------------------------------|
|------------------------------------------------------|4x
|--------------------------------------222222----------|
|-3333333333333333-000000-111111111111--------4444444--|
  ________________ ______ ____________ ______ _______

Repeat
Riff 5


Riff 8 guitar one
|-------------------------------------------------------------|
|-------------------------------------------------------------|
|-------------------------------------------------------------|
|-------------------------------------------------------5---5-|
|-----222-----5-5---4/5-5---4/5-4---------------------5-3-5-3-|
|-222-----333-3-3-0-2/3-3-0-2/3-2-----0-------------0-3---3---|
|
|      guitar two
|-------------------------------------------------------------|
|-------------------------------------------------------------|
|-------------------------------------------------------------|
|-------------------------------------------------------5---5-|
|-----222-------------------------4-5---4-5---4/5-4---5-3-5-3-|
|-222-----333---------------------2-3---2-3-0-2/3-2-0-3---3---|


Riff 9 both guitars
|-------------------------------------------------|
|-------------------------------------------------|
|-------------------------------------------------|
|-------------------------------------------5---5-|2x
|-5-5---4/5-5---4/5-4-4-5---4-5---4/5-4---5-3-5-3-|
|-3-3-0-2/3-3-0-2/3-2-2-3-0-2-3-0-2/3-2-0-3---3---|


Riff 10 both guitars
|-------------------------------------------------------------|
|-------------------------------------------------------------|
|-------------------------------------------------------------|
|-------------------------------------------------------------|2x
|----------4-----------2-------2----------2--------2--------4-|
|-0-0-0-0--2--0-0-0-0--0--0-0--0--0-0-0-0-0--0-0-0-0-0-0-0--2-|
  . . . .     . . . .     . .     . . . .    . . .   . . .

Riff 11 both guitars
|-------------------------------|
|-------------------------------|
|-------------------------------|
|-------------------------------|
|---------2----------2--------4-|
|-0-0-0-0-0--0-0-0-0-0--0-0-0-2-|
  . . . .    . . . .    . . .


Riff 12 guitar one
|------------------------------------------------------|
|-10p8-----10p8-----8p7-----8p7-------10p8-------10p8--|
|------8h9------8h9-----6h7-----6h7h8------6h7h8-------|
|------------------------------------------------------|
|------------------------------------------------------|
|------------------------------------------------------|
|
|       guitar two
|------------------------------------------------------|
|-10p9-----10p9-----8p7-----8p7-------10p8--------9p8--|
|-----9h10-----9h10-----8h9-----7h8h9-------8h9--------|
|------------------------------------------------------|
|------------------------------------------------------|
|------------------------------------------------------|



        guitar one
|------------------------------------------------------|
|----7p6-----7p6---------------------------------------|
|--8-----6h7-----6h7-10p9p7------9p8------8p7-----7p6--|
|---------------------------9h10-----9h10-----7h8------|
|------------------------------------------------------|
|------------------------------------------------------|
|
|       guitar two
|------------------------------------------------------|
|----9p8----10p9-----10p9-9------9p8-----9p8------10p9-|
|-8h9----8h9----9h10--------9h10-----8h9------8h9------|
|------------------------------------------------------|
|------------------------------------------------------|
|------------------------------------------------------|


        guitar one
|------------------------------------------------------|
|------------------------------------------------------|
|----------9p8p7------9p8------8p7p6-----7p6-7h8-------|
|-7h8-9h10-------9h10-----9h10-------7h8---------------|
|------------------------------------------------------|
|------------------------------------------------------|
|
|       guitar two
|------------------------------------------------------|
|----------10p9-------9p8------9p8p7-----8p7-8h10------|
|-8h9h10---------8h9------9h10-------8h9---------------|
|------------------------------------------------------|
|------------------------------------------------------|
|------------------------------------------------------|



Riff 13 both guitars
|-----------2x----------|-------------------|
|-----------------------|-------------------|
|-----------------------|-------------------|
|-----------------------|-------------------|
|-6----------2----------|-6---5-5/6---------|
|-4--000-0-0-0--0-0-0-0-|-4-0-3-3/4-0-0-0-0-|
     ... . .    . . . .     .       . . . .


Riff 14 guitar one
|-------------------------------------------------------------------|
|-------------------------------------------------------------------|
|-----------------------------3"------------------------------------|
|-------------------------------------------------------------------|
|-333333333333------5555-3333----5-5-5--5-5-5-5-2-4----2-4----2-2-2-|
|--------------3333--------------3-3-3--3-3-3-3-0-2-4--0-2-4--0-0-0-|
| ____________ ____ ____ ____    . . .  . . . . . .    . .    . . .
|       guitar two
|-------------------------------------------------------------------|
|-------------------------------------------------------------------|
|-------------------------------------------------------------------|
|-------------------------------------------------------------------|
|-333333333333------5555-3333-1"-5-5-5--5-5-5-5-2-4----2-4----2-2-2-|
|--------------3333--------------3-3-3--3-3-3-3-0-2-4--0-2-4--0-0-0-|
  ____________ ____ ____ ____    . . .  . . . . . .    . .    . . .


Riff 15 guitar one
|--------------------------------|---------------------------------|
|--------------------------------|---------------------------------|
|-----------------------------3"-|----------------------------3"2"-|
|--------------------------------|---------------------------------|
|-333333333333------5555-3333----|-333333333333------5555-3333-----|
|--------------3333--------------|--------------3333---------------|
| ____________ ____ ____ ____      ____________ ____ ____ ____
|       guitar two
|--------------------------------|---------------------------------|
|--------------------------------|---------------------------------|
|--------------------------------|---------------------------------|
|--------------------------------|-555555555555--------------------|
|-333333333333------5555-3333-1"-|-------------------5555-3333-1"--|
|--------------3333--------------|--------------3333---------------|
  ____________ ____ ____ ____      ____________ ____ ____ ____

Riff 16 guitar one
|--------------------------------|-------------------------------------|
|--------------------------------|-------------------------------------|
|--------------------------------|-------------------------------------|
|--------------------------------|-------------------------------------|
|-333333333333------5555-3333-1"-|-333333333333-5555--5--3--2--2--1--2-|
|--------------3333--------------|--------------------5--3--2--0--1--2-|
| ____________ ____ ____ ____      ____________ ____  .  .  .  .  .  .
|       guitar two
|--------------------------------|-------------------------------------|
|--------------------------------|-------------------------------------|
|--------------------------------|-------------------------------------|
|--------------------------------|-555555555555------------------------|
|-333333333333------5555-3333-1"-|--------------5555--5--3--2--2--1--2-|
|--------------3333--------------|--------------------5--3--2--0--1--2-|
  ____________ ____ ____ ____      ____________ ____  .  .  .  .  .  .


Riff 17 guitar one
|----------------------------------------------------|
|----------------------------------------------------|
|----------------------------------------------------|
|-6--------------6-6/8-----6---6\5-------6-7/8-------|
|----5-5-4-5-4-5-------5-5---5-----5-4-5-------5-4-5-|
|----3-3-2-3-2-3-------3-3---3-----3-2-3-------3-2-3-|
|    . . . . . .       . .   .     . . .       . . .
|       guitar two
|----------------------------------------------------|
|----------------------------------------------------|
|--------------------------5---5\3-------3-4/6-------|
|-6--------------6-6/8-------------------------------|
|----5-5-4-5-4-5-------5-5---5-----5-4-5-------5-4-5-|
|----3-3-2-3-2-3-------3-3---3-----3-2-3-------3-2-3-|
     . . . . . .       . .   .     . . .       . . .


Riff 18 both guitars
|--------------------------|
|--------------------------|
|--------------------------|
|--------------------------|
|-4-4--4-4-3--4-4--4-4-4-4-|
|-2-2--2-2-1--2-2--2-2-2-2-|
  . .  . . .  . .  . . . .


Riff 19 guitar one
|---------------------------------------|
|---------------------------------------|
|---------------------------------------|
|---------------------------------------|
|------4--5------3--4------4--5-------3-|
|------2--3------1--2------2--3-------1-|
|
|       guitar two
|----------------------------------------|
|----------------------------------------|
|----------------------------------------|
|----------------------------------------|
|-3--4------4--3------3--4-------5--3----|
|-1--2------2--1------1--2-------3--1----|
  .  .      .  .      .  .       .  .


Riff 20 guitar one
|-------------------------------|
|-------55------55-------55-----|
|----55------55-------55----8-4-|
|-77------77-------77-----------|
|-------------------------------|
|-------------------------------|
|
|                                 3x
|       guitar two
|-------------------------------|
|-------------------------------|
|-------------------------------|
|-------------------------------|
|-------------------------------|
|-------------------------------|



Riff 21 both guitars
|-------------------------------|
|-------55------55-------55-----|
|----55------55-------55----8-4-|
|-77------77-------77-----------|3x
|-------------------------------|
|-------------------------------|



Riff 22 guitar one
|---------------------------------------------------------------------|
|-------------------33------33------33----------22------22------22----|
|----------------33------33------33----6-2---22------22------22---5-1-|
|-------------55------55------55----------44------44------44----------|
|-4---4-4--4----------------------------------------------------------|
|-4---2-2--2----------------------------------------------------------|
| .   . .  .
|       guitar two
|---------------------------------------------------------------------|
|-------------------33------33------33----------22------22------22----|
|----------------33------33------33----6-2---22------22------22---5-1-|
|-6-----------55------55------55----------44------44------44----------|
|-----4-4--4----------------------------------------------------------|
|-4---2-2--2----------------------------------------------------------|
  .   . .  .

Riff 23
|---------|
|---------|
|---------|
|---------|
|-2-2-2-2-|
|-0-0-0-0-|
  . . . .

Repeat
Riff 21 3x
Riff 22
Riff 23


Riff 24 both guitars
|--------------------------------------|
|--------------------------------------|
|--------------------------------------|
|--------------------------------------|
|-5-4-3--3-4--5-4-3--3-4--6-5-5-4-3--3-|
|-3-2-1--1-2--3-2-1--1-2--4-3-3-2-1--1-|
  . . .  . .  . . .  . .  . . . . .  .


The end..

  Visit MetalTabs.com for more metal tablature

bottom separator

Contact Us | Privacy Policy | Disclaimer | Legal Notice
Copyright © 2001-2014 MetalTabs.com. All Rights Reserved.