top separator

Home

Forum

What's New

Submit a Tab

FAQ

Links

Contact Us

Link to Us

MetalTabs.com logo

Bands

0-9

A

B

C

D

E

F

G

H

I

J

K

L

M

N

O

P

Q

R

S

T

U

V

W

X

Y

Z

Search

What

Where
 

Internal Bleeding - "Prophet Of The Blasphemies" Guitar Tab

Plain Text Version
More Internal Bleeding Tabs

Hits: 3956
Updated: 2005-06-08 16:11:55

 

By:

Yura

sendpm.gif

email.gif

Important note
This tab is available online because we obtained explicit permission from Internal Bleeding or their label.


#----------------------------------PLEASE NOTE---------------------------------#
#This file is the author's own work and represents their interpretation of the #
#song. You may only use this file for private study, scholarship, or research. #
#Unless specified otherwise, this is NOT an official tab from the band members.#
#------------------------------------------------------------------------------#

  Visit MetalTabs.com for more metal tablature
  
--- INTERNAL BLEEDING ---
                           "Prophet Of The Blasphemies"
                     From album: "Perpetual Degradation" (1994)
                     also "Voracious Contempt" (1995)
                     Copyright Pavement 1995
                     Transcribed by: Yura Kowalchuk
                     Contact:[yura@grindcore.net]
                             [yura_kowalchuk@mail.ru]
                     HOME PAGE:http://www.blood-scrapes.nm.ru

                            TABULATURE LEGEND:
                   " - tremolo             h - hammer on
                   ~ - vibrato             \ - slide down
                   p - pull off            / - slide down
                  tr - tremolo picking     ^ - pinch harmonics
                   = - sustained note      b - bend string
                p.m. - palm muting         t - tapping

Tuning is D [D, G, C, F, A, D]

[Part 1 (x2)]
-|---------------------------------|
-|---------------------------------|
-|---------------------------------|
-|-------------------------4-------|
-|-6-5-4-3-6-5-4-3-7-6-5-4-2-6-4-3-|
-|-4-3-2-1-4-3-2-1-5-4-3-2---4-2-1-|
   . . . . . . . . . . . . . . . .

[Part 2 (x4)]                                         [Outro]
-|-------------------------------------------------|-|---------|
-|-------------------------------------------------|-|---------|
-|-------------------------------------------------|-|---------|
-|-------------------------------------------------|-|---------|
-|-------2-----------3-----------2-----------------|-|-3---4---|
-|-0--1-----3--1--3-----3--0--1-----3--0--1--2--3--|-|-1---2---|
  tr...............................................    .   .

[Part 3 (x5)]                                               [Outro 2]
-|---------------------------------------------------------|-----------------|
-|---------------------------------------------------------|-----------------|
-|-----------------------^---------------------------------|-----------------|
-|--------------4--3--5--3---------------4--3--------------|-5-2-3-7-5-------|
-|-2--5-4-3--2--2--1--3-----2--5-4-3--2--2--1--4h5p4-3h4p3-|-3-0-1-5-3-7-6-5-|
-|-0--3-2-1--0--------------0--3-2-1--0--------------------|-----------5-4-3-|
   .  . . .  .  .  .  .     .  . . .  .  .  .                . . . . . . . .

[PART 3] [OUTRO 2 (x4)]

[Part 4 (x4)]
-|-------------------------------------------|
-|-------------------------------------------|
-|-------------------------------------------|
-|-2h3p2-------0h1p0-4h5p4-3h4p3-------------|
-|-------2h3p2-------------------3h4p3-2h3p2-|
-|-------------------------------------------|

       [Part 5 (x4)]
-|----|----------------------------------------------|--------------
-|----|----------------------------------------------|--------------
-|----|----------------------------------------------|---//B R E A K
-|----|----------------------------------------------|--------------
-|-5--|-2===-----------------------------------------|-2------------
-|-3--|-0===-0--0-0--1-1-1-1-0-0-0-0-1-1-1-1-2-2-2-2-|-0------------
   .         .  . .  . . . . . . . . . . . . . . . .   .

[Part 6 (x4)]       [Part 7 (x4)]
-|-----------------|----------------------------------------------|
-|-----------------|--------------------^-------------------------|
-|-----------------|--------------------3-------------------------|
-|---------4-6-4-3-|-------------4/6-4-----------------4/6--4--^--|
-|-2-5-4-3-2-4-2-1-|-2--5--4--3--2/4-2-----2--5--4--3--2/4--2--1--|
-|-0-3-2-1---------|-0--3--2--1------------0--3--2--1-------------|
   . . . .   . . .   .  .  .  .      .     .  .  .  .       .

[Part 8 (x2)]
-|----------------------------------------------------|
-|----------------------------------------------------|
-|----------------------------------------------------|
-|----------------------------------------------------|
-|-------------------3-----4-------------2----6-5-4-3-|
-|-3----2-4----1--------3-------3-4-2---------4-3-2-1-|
  tr......................................... . . . .

[Part 9 (x5)]
-|---------------------------------|---------------------------------|
-|---------------------------------|---------------------------------|
-|---------------------------------|---------------------------------|
-|-------------4\3-------------8\7-|-------------4\3---------4-----^-|
-|-2-------4-3-2\1-2-------8-7-6\5-|-2-------4-3-2\1-5---4---2-4-3-1-|
-|-0-0-0-0-2-1-----0-0-0-0-6-5-----|-0-0-0-0-2-1-----3---2-----2-1---|
   . . . . . .     . . . . . .       . . . . . .     .   .   . . .

[Part 10 (x4)]
-|--------------------------------------------|
-|--------------------------------------------|
-|--------------------------------------------|
-|------8-11-10---------------8---------------|
-|-7-10---------11-10----7-10---11-10-8-10----|
-|--------------------11-------------------10-|
  tr..........................................

[Outro 3]
-|------------------------------------------|
-|------------------------------------------|
-|------------------------------------------|
-|------------------------------------------|
-|-2---5--2--2-5-4-3--2--2--5--2-5-4-5-4-3--|
-|-0---3--0--0-3-2-1--0--0--3--0-3-2-3-2-1--|
             . . .               . . . .

[Part 11 (x5)]
-|----------------------------------------|-|------|
-|----------------------------------------|-|------|
-|----------------------------------------|-|------|
-|----------------------------------------|-|------|
-|-2--2--5--2--2-5-4-3--2--2--5--2-5-4-3--|-|-2----|
-|-0--0--3--0--0-3-2-1--0--0--3--0-3-2-1--|-|-0----|
               . . .             . . .        .

END OF SONG

  Visit MetalTabs.com for more metal tablature

bottom separator

Contact Us | Privacy Policy | Disclaimer | Legal Notice
Copyright © 2001-2014 MetalTabs.com. All Rights Reserved.