top separator

Home

Forum

FAQ

Contact Us

Link to Us

MetalTabs.com logo

Bands

0-9

A

B

C

D

E

F

G

H

I

J

K

L

M

N

O

P

Q

R

S

T

U

V

W

X

Y

Z

Korpiklaani - "Juokse sinš humma (Keep on running you my horse)" Guitar Tab

Plain Text Version
More Korpiklaani Tabs

Hits: 7207
Updated: 2005-06-08 16:10:58

By:

Theoldman


#----------------------------------PLEASE NOTE---------------------------------#
#This file is the author's own work and represents their interpretation of the #
#song. You may only use this file for private study, scholarship, or research. #
#Unless specified otherwise, this is NOT an official tab from the band members.#
#------------------------------------------------------------------------------#

  Visit MetalTabs.com for more metal tablature
  
Band:  Korpiklaani
Album: Spirit of the Forest
Song:  Juokse Sinš Humma

Copyright (c)  Napalm Records 2003
Version 1.0 - 2.6.2005

Transcribed By: theoldman
Email:          swordbearing@hotmail.com
________________________________________

.  - palm mute           /  - slide up to
\  - slide down to       ~  - vibrato
h  - hammer on           b  - Bend
p  - pull off            Suffixes for bend
t  - tap                 f  - full bend    h - half bend
ph - pinched harmonic    q  - quarter bend t - tap bend
*  - see comment         ^  - Hold bend    r release bend
x  - Stuccatto           ~  - vibrato bend
,  - slight palm mute    () - ghost note, sustained note
"  - tremolo note        <> - Trill

Tuning E A D G B E

Solo 1 (Harmonic) (0:00-0:11)
|-------------------------------------------------------------------|
|----13-12-10-10------------------------10---8-10-8-----------------|
|9-9-------------9-12-10-9-7-5--------9-----------------------------|
|------------------------------7---10-----------------9---7---------|
|-------------------------------------------------------------------|
|-------------------------------------------------------------------|


Riff 1 under Solo 1 (0:00-0:11)
|----------------------------------------------------------------|
|----------------------------------------------------------------|
|----------------------------------------------------------------|
|----------------------------------------------------------------|
|7-7-7-7-7-7-7-7-7-7-7-7-7-7-7-7-7-7-7-7-10--5---7-7-7-7-7-7-7-7-|
|5-5-5-5-5-5-5-5-5-5-5-5-5-5-5-5-5-5-5-5-8---3---5-5-5-5-5-5-5-5-|
 . . . . . . . . . . . . . . . . . . . . .   .   . . . . . .



Solo 2 (Harmonic) (0:12-0:34)
|-------------------------------------------------------------------|
|----13-12-10-----------8------------10-10--------------------------|
|9------------------7-----10-9-------------9-7----------------------|
|----------------------------------------------10---9-9-7-----------|
|-------------------------------------------------------------------|
|-------------------------------------------------------------------|


Riff 2 under Solo 2 (0:12-0:34)
|-----------------------------------------------------------------|
|-----------------------------------------------------------------|
|-----------------------------------------------------------------|
|----------------7-------5----------------------------------------|
|7---7-7-7---7-7-5---5---3---2---7---7-7-10--9---7-777-777-777-77-|
|5---5-5-5---5-5-----3-------0---5---5-5-8---7---5-555-555-555-55-|
                                                   ... ... ... ..


Solo 1 (Harmonic) + Riff 1 (0:35-0:46)

Solo 2 (Harmonic) + Riff 2 (0:47-1:10)


END

  Visit MetalTabs.com for more metal tablature

bottom separator

Contact Us | Privacy Policy | Disclaimer
Copyright © 2001-2014 MetalTabs.com. All Rights Reserved.