top separator

Home

Forum

What's New

Submit a Tab

FAQ

Links

Contact Us

Link to Us

MuSpy.com

MetalTabs.com logo

Bands

0-9

A

B

C

D

E

F

G

H

I

J

K

L

M

N

O

P

Q

R

S

T

U

V

W

X

Y

Z

Search

What

Where
 

Mourning Beloveth - "The Words That Crawled" Bass Tab

Plain Text Version
More Mourning Beloveth Tabs

Hits: 2811
Rated: 5.00 out of 5 (3 votes)
Updated: 2007-09-21 03:47:08

 

By:

Paddy

sendpm.gif

email.gif

Important note
This tab is available online because we obtained explicit permission from Mourning Beloveth or their label.


#----------------------------------PLEASE NOTE---------------------------------#
#This file is the author's own work and represents their interpretation of the #
#song. You may only use this file for private study, scholarship, or research. #
#Unless specified otherwise, this is NOT an official tab from the band members.#
#------------------------------------------------------------------------------#

  Visit MetalTabs.com for more metal tablature
  
================================================================================
                       M O U R N I N G   B E L O V E T H

                                       -

                  T H E   W O R D S   T H A T   C R A W L E D
================================================================================


                                THE SULLEN SULCUS
                           (c) Sentinel Records - 2002
                        http://www.mourningbeloveth.com/


                              Tune Down 1 & 1/2 Steps
                                    C# F# B E

                                  Tempo = 70 BPM
                               Time Signature = 4/4



                          -----------------------------
                                 Transcribed by

                                 PADDY MCMULLAN
                           stinkypoohpants@yahoo.co.uk

                                   Version 1.1
                             -----------------------

                             Tablature Symbols Used:


 (/)       -  Legato Slide (Blank space indicates length of slide)
 \         -  Slide Down to/Down From (Blank space indicates length of slide)
 /         -  Slide Up To/Up From (Blank space indicates length of slide)
 ( )       -  Ghost Note/Tied Note/Implied Note


================================================================================
Riff 1: Play 3 times
================================================================================


||--R      -------------||----------------------|------------------------|
||--E      ----2-(2)----||----------------------|---------------2-(2)----|
||--S      -3-(3)-3--2--||----------------------|------------3-(3)-3--2--|
||--T      -------------||--0------0--0------0--|--0------0--------------|


|----------------------|------------------------|----------------------|
|----------------------|---------------2--------|----------------------|
|----------------------|------------3-(3)-3--2--|----------------------|
|--0------0--0------0--|--0------0--------------|--0------0--0------0--|


|----------------------|----------------------|------------------------| |
|----------------------|----------------------|---------------2--------|*|
|----------------------|----------------------|------------3-(3)-3--2--|*|
|--0------0--0------0--|--0------0--0------0--|--0------0--------------| |



Play the first bar once only.



================================================================================
Riff 2: Play twice
================================================================================


||--------------------|-------------------------|----------------------|
||--------------------|-------------------------|----------------------|
||--7--------------7--|--7----9--10----9----10--|----------------------|
||--------------------|-------------------------|--10--------------10--|


|----------------------|--------------------|-------------------------|
|----------------------|--------------------|-------------------------|
|----------------------|--7--------------7--|--7----9--10----9----10--|
|--10--------------10--|--------------------|-------------------------|


|----------------------|-------------------------|
|----------------------|-------------------------|
|----------------------|-------------------------|
|--10--------------10--|--10----------12--10--7--|


| |-----------------------------|-----------------------------|
|6|-----------------------------|-----------------------------|
|/|-----------------3----2------|-----------------3----2------|
|4|--0--------------------------|--0--------------------------|


|-----------------------------| |---------------------|----------------------| |
|-----------------------------|4|---------------------|----------------------|*|
|-----------------3----2------|/|--3------------2--3--|--5----------3--2--3--|*|
|--0--------------------------|4|---------------------|----------------------| |



================================================================================
Play Riff 1 and 2 again
================================================================================

================================================================================
Riff 3.1: Play twice [Tempo = 90 BPM]
================================================================================


| |------------------|-------------------|------------------|
|3|------------------|-------------------|------------------|
|/|--0----0--0----0--|--7----7--7--5--7--|--8----8--8----8--|
|4|------------------|-------------------|------------------|


|------------------|-------------------|-------------------|
|------------------|-------------------|-------------------|
|--7----7--5----5--|-------------------|-------------------|
|------------------|--1--1--1--1----1--|--1--1--1--1----1--|


|-------------------|-------------------| |
|-------------------|-------------------|*|
|-------------------|-------------------|*|
|--1--1--1--1----1--|--3--3--3--3----3--| |



================================================================================
Riff 3.2: Play 5 times
================================================================================


||------------------|-------------------|--------------------|
||------------------|-------------------|--------------------|
||--0----0--0----0--|--7----7--7--5--7--|--8----8--8--10--8--|
||------------------|-------------------|--------------------|


|-------------------|-------------------|-------------------|
|-------------------|-------------------|-------------------|
|--7--8--7--5----5--|-------------------|-------------------|
|-------------------|--1--1--1--1----1--|--1--1--1--1----1--|


|-------------------|-------------------|------------------| |
|-------------------|-------------------|------------------|*|
|-------------------|-------------------|--0----0--0----0--|*|
|--1--1--1--1----1--|--3--3--3--3----3--|------------------| |



================================================================================
Play riff 1 twice (reverting to the original tempo)
================================================================================

================================================================================
Riff 4: Play 10 times
================================================================================


| |-----------------------|------------------------| |
|4|-----------------------|------------------------|*|
|/|--7---------10---------|--------------2----6----|*|
|4|-------0----------0----|--5---3--2--3-----------| |



================================================================================
Riff 5: Play 4 times
================================================================================


||---------------------------|---------------------|
||--------7------------------|---------------------|
||--0--0-----7--8-----10-8-7-|--5--------3----2----|
||---------------------------|---------------------|


|---------------------------|-------------------------| |
|--------7------------------|-------------------------|*|
|--0--0-----7--8-----10-8-7-|--5--------8-7-8--8--10--|*|
|---------------------------|-------------------------| |



================================================================================
Play riff 3.2 thirteen times, ending on the following:
================================================================================


||------------||
||------------||
||--0---------||
||------------||



================================================================================
End
================================================================================


Tab summary:        Riff 1 X 3
                    Riff 2 X 2
                    Riff 1 X 3
                    Riff 2 X 2
                    Riff 3.1 X 2
                    Riff 3.2 X 5
                    Riff 1 X 2
                    Riff 4 X 10
                    Riff 5 X 4
                    Riff 3.2 X 13

                    END


-----------------------
Corrections (05/09/07):
-----------------------

* Corrected Riff 1

  Visit MetalTabs.com for more metal tablature

bottom separator

Contact Us | Privacy Policy | Disclaimer | Legal Notice
Copyright © 2001-2014 MetalTabs.com. All Rights Reserved.