top separator

Home

Forum

What's New

Submit a Tab

FAQ

Links

Contact Us

Link to Us

MetalTabs.com logo

Bands

0-9

A

B

C

D

E

F

G

H

I

J

K

L

M

N

O

P

Q

R

S

T

U

V

W

X

Y

Z

Search

What

Where
 

Viikate - "Sydämellistä" Guitar Tab

Plain Text Version
More Viikate Tabs

Hits: 4267
Rated: 3.00 out of 5 (2 votes)
Updated: 2005-06-08 16:00:32

 

By:

Darkenelf

sendpm.gif

email.gif

Important note
This tab is available online because we obtained explicit permission from Viikate or their label.


#----------------------------------PLEASE NOTE---------------------------------#
#This file is the author's own work and represents their interpretation of the #
#song. You may only use this file for private study, scholarship, or research. #
#Unless specified otherwise, this is NOT an official tab from the band members.#
#------------------------------------------------------------------------------#

  Visit MetalTabs.com for more metal tablature
  
Band: Viikate
Album: Noutajan Valssi
Song: Sydämellistä

Copyright (c)  (Ranka Recordings) (2000)
Version 1.0 - (8-11-2004)

Transcribed By: Martijn Wietsma (Asmundr/Darkenelf)
Email: asmundr@vikingblood.net/northerland@yahoo.co.uk
Homepage: http://www.vikingblood.net


.  - palm mute           /  - slide up to
\  - slide down to       ~  - vibrato
h  - hammer on           b  - Bend
p  - pull off            Suffixes for bend
t  - tap                 f  - full bend    h - half bend
ph - pinched harmonic    q  - quarter bend t - tap bend
*  - see comment         ^  - Hold bend    r release bend
x  - Stuccatto           ~  - vibrato bend
,  - slight palm mute    () - ghost note, sustained note
"  - tremolo note        <> - Trill

Tunning E A D G B E

riff A
|-------------------------------------------------------------------|
|-------------------------------------------------------------------|
|-------------------------------------------------------------------|(4x)
|--------2-2-2--2-2-2--2-2-2--------------2-2-2--4-4-4--4-4-4-------|
|-4-4-5--2-2-2--2-2-2--2-2-2----4-44-4-5--2-2-2--4-4-4--4-4-4-------|
|-2-2-3--0-0-0--0-0-0--0-0-0----2-22-2-3--0-0-0--2-2-2--2-2-2-------|
         . . .  . . .  . . .              . . .  . . .  . . .

riff B (0:29)
|-------------------------------------------------------------------|
|-7-5---------------------------------------------------------------|
|------7-6--4~------------------------------------------------------|
|-------------------------------------------------------------------|
|-------------------------------------------------------------------|
|-------------------------------------------------------------------|

riff C (0:31)
|-------------------------------------------------------------------|
|-------------------------------------------------------------------|
|-4~-6p4h6h7~--7~-7p6p4h6~-(6)--------------------------------------|(4x)
|-------------------------------------------------------------------|
|-------------------------------------------------------------------|
|-------------------------------------------------------------------|

riff D (0:31)
|-------------------------------------------------------------------|
|-------------------------------------------------------------------|
|-------------------------------------------------------------------|(4x)
|-------------------------------------------------------------------|
|-9--9--9--9--99--7-------------------------------------------------|
|-7--7--7--7--77--5-------------------------------------------------|

riff E (0:47)
|-------------------------------------------------------------------|
|-------------------------------------------------------------------|
|------------6-6h7-6h7-6h7h9-7p6h-----------------------------------|(4x)
|-6666-6666-----------------------9~--------------------------------|
|-4444-4444---------------------------------------------------------|
|-------------------------------------------------------------------|

repeat riff A 4x (1:02)
repeat riff B 1x
repeat riff C 4x
repeat riff D 4x
repeat riff E 4x

riff F (1:47)
|-------------------------------------------------------------------|
|-------------------------------------------------------------------|
|-4~-7p6p4-4--7p6p4-4--7p6p4-4--7p6p4-4-----------------------------|(1x)
|-------------------------------------------------------------------|
|-------------------------------------------------------------------|
|-------------------------------------------------------------------|

|-------------------------------------------------------------------|
|-------------------------------------------------------------------|
|-7p6p4-4--7p6p4-4--7p6p4-4--7p6p4-4--------------------------------|(3x)
|-------------------------------------------------------------------|
|-------------------------------------------------------------------|
|-------------------------------------------------------------------|

riff G (2:03)
|-------------------------------------------------------------------|
|-------------------------------------------------------------------|
|-4-4--6p4h6h7~-7-7--7p6p4h6-6~-------------------------------------|(8x)
|-------------------------------------------------------------------|
|-------------------------------------------------------------------|
|-------------------------------------------------------------------|

repeat riff E 4x
repeat riff A 4x

riff H (3:15)
|-------------------------------------------------------------------|
|-------------------------------------------------------------------|
|-7p6--6h7p6---4~---------------------------------------------------|
|------------7------------------------------------------------------|
|-------------------------------------------------------------------|
|-------------------------------------------------------------------|

(end of song)

  Visit MetalTabs.com for more metal tablature

bottom separator

Contact Us | Privacy Policy | Disclaimer | Legal Notice
Copyright © 2001-2014 MetalTabs.com. All Rights Reserved.