top separator

Home

Forum

What's New

Submit a Tab

FAQ

Links

Contact Us

Link to Us

MetalTabs.com logo

Bands

0-9

A

B

C

D

E

F

G

H

I

J

K

L

M

N

O

P

Q

R

S

T

U

V

W

X

Y

Z

Search

What

Where
 

Korpiklaani - "Pine Woods" Guitar Tab

Plain Text Version
More Korpiklaani Tabs

Hits: 9993
Rated: 4.00 out of 5 (5 votes)
Updated: 2005-06-08 16:00:22

 

By:

Darkenelf

sendpm.gif

email.gif

Important note
This tab is available online because we obtained explicit permission from Korpiklaani or their label.


#----------------------------------PLEASE NOTE---------------------------------#
#This file is the author's own work and represents their interpretation of the #
#song. You may only use this file for private study, scholarship, or research. #
#Unless specified otherwise, this is NOT an official tab from the band members.#
#------------------------------------------------------------------------------#

  Visit MetalTabs.com for more metal tablature
  
Band: Korpiklaani
Album: Voice of Wilderness
Song: Pine Woods
Track Time: 04:26

Copyright (c) Napalm Records 2005
Version 1.0 - 19-05-2005

Transcribed By: Martijn Wietsma (Asmundr/Darkenelf)
Email: asmundr@vikingblood.net/northerland@yahoo.co.uk


.  - palm mute           /  - slide up to
\  - slide down to       ~  - vibrato
h  - hammer on           b  - Bend
p  - pull off            Suffixes for bend
t  - tap                 f  - full bend    h - half bend
ph - pinched harmonic    q  - quarter bend t - tap bend
*  - see comment         ^  - Hold bend    r release bend
x  - Stuccatto           ~  - vibrato bend
,  - slight palm mute    () - ghost note, sustained note
"  - tremolo note        <> - Trill

Tuning E A D G B E

Riff A (Flute intro)
|-----------10--8---------------------------------------------------|
|--------10-------10--8-10--10p8h10---------------------------------|
|-7h9h10-----------------------------10-9---------------------------|
|-------------------------------------------------------------------|
|-------------------------------------------------------------------|
|-------------------------------------------------------------------|

repeat riff A 1x at (0:08) at (0:16) at (0:24) at (0:32)

riff B (0:05)
|-------------------------------------------------------------------|
|-------------------------------------------------------------------|
|-------------------------------------------------------------------|(4x)
|-7----5-5-7---------3-5--------------------------------------------|
|-5----3-3-5--11111--1-3--3-5--22-----------------------------------|
|-------------------------1-3--00-----------------------------------|
              .....            ..

riff C (0:36) (Lead-guitars)
|-----------3-----------5-3-----------------3-----------------------|
|-3---3-5-6---5---3-5h6-----5-----3---3-5-6---5----3---3~~----------|
|---5-------------------------5-----5----------------5--------------|(4x)
|-------------------------------------------------------------------|
|-------------------------------------------------------------------|
|-------------------------------------------------------------------|

riff D (0:36) (rhythm-guitars)
|-------------------------------------------------------------------|
|-------------------------------------------------------------------|
|-------------------------------------------------------------------|(4x)
|----333-----555-----333--7-5/7-------------------------------------|
|-7--111--7--333--7--111--5-3/5-------------------------------------|
|-5-------5-------5--------------55-55------------------------------|
                                 .. ..

repeat riff B 4x
repeat riff A 1x at (1:12) at (1:20) at (1:28) at (1:36)
repeat riff C 4x (1:40)
repeat riff D 3x

|-------------------------------------------------------------------|
|-------------------------------------------------------------------|
|-------------------------------------------------------------------|(1x)
|----333-----555-----333--7-5/7~~~----------------------------------|
|-7--111--7--333--7--111--5-3/5-------------------------------------|
|-5-------5-------5-------------------------------------------------|

(drums)

riff E (2:33) (palm mute)
|-------------------------------------------------------------------|
|-------------------------------------------------------------------|
|-------------------------------------------------------------------|
|-7-----7-----7-8-----8-----8-7-----7-----7-3-----3-----3-----------|
|-5-555-5-555-5-6-666-6-666-6-5-555-5-555-5-1-111-1-111-1-----------|
|-------------------------------------------------------------------|
  .......................................................

|-------------------------------------------------------------------|
|-------------------------------------------------------------------|
|-------------------------------------------------------------------|
|-7-----7-----7-8-----8-----8-10-----10-----10-10-----10-----10-----|
|-5-555-5-555-5-6-666-6-666-6--8-888--8-888--8--8-888--8-888--8-----|
|-------------------------------------------------------------------|
  .............................................................

(repeat 3x)

Solo flute: (2:44) (Not tabbed)
Solo guitar: (2:54) (Not tabbed)

repeat riff C 4x (3:16)
repeat riff D 4x

repeat riff B 4x (3:48)
repeat riff A 1x at (3:51) at (3:59) at (4:07) at (4:15)

(some violin is playing during the last riff)

(End of Song)

  Visit MetalTabs.com for more metal tablature

bottom separator

Contact Us | Privacy Policy | Disclaimer | Legal Notice
Copyright © 2001-2014 MetalTabs.com. All Rights Reserved.