top separator

Home

Forum

What's New

Submit a Tab

FAQ

Links

Contact Us

Link to Us

MuSpy.com

MetalTabs.com logo

Bands

0-9

A

B

C

D

E

F

G

H

I

J

K

L

M

N

O

P

Q

R

S

T

U

V

W

X

Y

Z

Search

What

Where
 

Pestilence - "Prophetic Revelations" Guitar Tab

Plain Text Version
More Pestilence Tabs

Hits: 3546
Rated: 3.29 out of 5 (7 votes)
Updated: 2005-06-08 15:57:54

 

By:

Chris Rezendes

sendpm.gif

email.gif

Important note
This tab is available online because we obtained explicit permission from Pestilence or their label.


#----------------------------------PLEASE NOTE---------------------------------#
#This file is the author's own work and represents their interpretation of the #
#song. You may only use this file for private study, scholarship, or research. #
#Unless specified otherwise, this is NOT an official tab from the band members.#
#------------------------------------------------------------------------------#

  Visit MetalTabs.com for more metal tablature
  
================================================================================
Song: Prophetic Revelations
Artist: Pestilence
Album: Testimony of the Ancients (1991, Roadrunner)

Tabbed by Chris Rezendes (dudemcrude@yahoo.com)
Date started tab: 5/29/05
Date finished tab: 5/30/05

Tuning: E (standard)
Copy: First

Notation Key
~  : vibrato
^  : bend
.  : palm mute
r  : release
t  : trill
p  : pull-off
h  : hammer-on
x  : ghost note
/  : slide up
\  : slide down
>< : pinch harmonics

Comments: There's not really much to say here.  I got bored, I tabbed this out.
If you notice anything wrong with this tab, do everyone else a favor by telling
me.  Thanks.
================================================================================

Fig. 1A x3
e|-----------|-----------------|-----------------|-----------------|
B|-----------|-----------------|-----------------|-----------------|
G|-----------|-----------------|-----------------|-----------------|
D|-----------|-----------------|-----------------|-----------------|
A|--6-3-5-4--|-----------------|-----------------|-----------------|
E|--4-1-3-2--|--4-5^-(1-step)--|--3-4^-(1-step)--|--2-3^-(1-step)--|

Fig. 1B x1
e|-----------|-----------------|-----------------|--------|
B|-----------|-----------------|-----------------|--------|
G|-----------|-----------------|-----------------|--------|
D|-----------|-----------------|-----------------|--5--3--|
A|--6-3-5-4--|-----------------|-----------------|--3--1--|
E|--4-1-3-2--|--4-5^-(1-step)--|--3-4^-(1-step)--|--------|

            TIME- 0:17

Fig. 1C x1
e|-----------|-----------------|-----------------|-----------------|
B|-----------|-----------------|-----------------|-----------------|
G|-----------|-----------------|-----------------|-----------------|
D|-----------|-----------------|-----------------|-----------------|
A|--6-3-5-4--|-----------------|-----------------|-----------------|
E|--4-1-3-2--|--4-5^-(1-step)--|--3-4^-(1-step)--|--2-3^-(1-step)--|
    . . . .

Fig. 1A x2
e|-----------|-----------------|-----------------|-----------------|
B|-----------|-----------------|-----------------|-----------------|
G|-----------|-----------------|-----------------|-----------------|
D|-----------|-----------------|-----------------|-----------------|
A|--6-3-5-4--|-----------------|-----------------|-----------------|
E|--4-1-3-2--|--4-5^-(1-step)--|--3-4^-(1-step)--|--2-3^-(1-step)--|

Fig. 1B x1
e|-----------|-----------------|-----------------|--------|
B|-----------|-----------------|-----------------|--------|
G|-----------|-----------------|-----------------|--------|
D|-----------|-----------------|-----------------|--5--3--|
A|--6-3-5-4--|-----------------|-----------------|--3--1--|
E|--4-1-3-2--|--4-5^-(1-step)--|--3-4^-(1-step)--|--------|

            TIME- 0:34

Pause, drums...

            TIME- 0:36

Fig. 2 x6
e|-----------------|--------------------|
B|-----------------|--------------------|
G|------4---3------|------4---3---------|
D|--------------5--|--------------------|
A|--2---2---1------|--2---2---1--3/4\3--|
E|--0-----------3--|--0----------1/2\1--|

            TIME- 1:02

Fig. 3 x4
e|--------|--------|--------|-----|-------|
B|--------|--------|--------|-----|-------|
G|--------|--------|--------|-----|-------|
D|--3-----|--4-----|--5-----|--6--|-------|
A|--1-----|--2-----|--3-----|--4--|--6-7--|
E|----2~--|----3~--|----4~--|-----|--4-5--|
                                     . .

            TIME- 1:18

Fig. 2 x6
e|-----------------|--------------------|
B|-----------------|--------------------|
G|------4---3------|------4---3---------|
D|--------------5--|--------------------|
A|--2---2---1------|--2---2---1--3/4\3--|
E|--0-----------3--|--0----------1/2\1--|

            TIME- 1:43

Fig. 3 x4
e|--------|--------|--------|-----|-------|
B|--------|--------|--------|-----|-------|
G|--------|--------|--------|-----|-------|
D|--3-----|--4-----|--5-----|--6--|-------|
A|--1-----|--2-----|--3-----|--4--|--6-7--|
E|----2~--|----3~--|----4~--|-----|--4-5--|
                                     . .

            TIME- 1:58

Riff 1 x2
e|------------------------|------------------------|
B|------------------------|------------------------|
G|---------------------5--|---------------------4--|
D|------------------------|------------------------|
A|--2-2--2-2--2-2-2-2--3--|--2-2--2-2--2-2-2-2--2--|
E|--0-0--0-0--0-0-0-0-----|--0-0--0-0--0-0-0-0-----|
    . .  . .  . . . .        . .  . .  . . . .

e|------------------------|------------------------|
B|------------------------|------------------------|
G|---------------------3--|---------------------4--|
D|------------------------|------------------------|
A|--2-2--2-2--2-2-2-2--1--|--2-2--2-2--2-2-2-2--2--|
E|--0-0--0-0--0-0-0-0-----|--0-0--0-0--0-0-0-0-----|
    . .  . .  . . . .        . .  . .  . . . .

            TIME- 2:13

Fig. 4A x1
e|---------------------|
B|---------------------|
G|--3-5-6--6/8\6--5-6--|
D|---------------------|
A|--1-3-4--4/6\4--3-4--|
E|---------------------|

Fig. 4 x2
e|---------------------|---------------------|
B|---------------------|---------------------|
G|--3-5-6--6/8\6--5-6--|--3-5-6--6/8\6--5-6--|
D|---------------------|---------------------|
A|--1-3-4--4/6\4--3-4--|--1-3-4--4/6\4--3-4--|
E|---------------------|---------------------|

e|---------------------|---------------------|
B|---------------------|---------------------|
G|--3-5-6--6/8\6--5-6--|--3-5-7--7/8\7--6-7--|
D|---------------------|---------------------|
A|--1-3-4--4/6\4--3-4--|--1-3-5--5/6\5--4-5--|
E|---------------------|---------------------|

            TIME- 2:30

Fig. 1C x1
e|-----------|-----------------|-----------------|-----------------|
B|-----------|-----------------|-----------------|-----------------|
G|-----------|-----------------|-----------------|-----------------|
D|-----------|-----------------|-----------------|-----------------|
A|--6-3-5-4--|-----------------|-----------------|-----------------|
E|--4-1-3-2--|--4-5^-(1-step)--|--3-4^-(1-step)--|--2-3^-(1-step)--|
    . . . .

Fig. 1A x2
e|-----------|-----------------|-----------------|-----------------|
B|-----------|-----------------|-----------------|-----------------|
G|-----------|-----------------|-----------------|-----------------|
D|-----------|-----------------|-----------------|-----------------|
A|--6-3-5-4--|-----------------|-----------------|-----------------|
E|--4-1-3-2--|--4-5^-(1-step)--|--3-4^-(1-step)--|--2-3^-(1-step)--|

Fig. 1B x1
e|-----------|-----------------|-----------------|--------|
B|-----------|-----------------|-----------------|--------|
G|-----------|-----------------|-----------------|--------|
D|-----------|-----------------|-----------------|--5--3--|
A|--6-3-5-4--|-----------------|-----------------|--3--1--|
E|--4-1-3-2--|--4-5^-(1-step)--|--3-4^-(1-step)--|--------|

            TIME- 2:47

Fig. 1C x1
e|-----------|-----------------|-----------------|-----------------|
B|-----------|-----------------|-----------------|-----------------|
G|-----------|-----------------|-----------------|-----------------|
D|-----------|-----------------|-----------------|-----------------|
A|--6-3-5-4--|-----------------|-----------------|-----------------|
E|--4-1-3-2--|--4-5^-(1-step)--|--3-4^-(1-step)--|--2-3^-(1-step)--|
    . . . .

Fig. 1A x3
e|-----------|-----------------|-----------------|-----------------|
B|-----------|-----------------|-----------------|-----------------|
G|-----------|-----------------|-----------------|-----------------|
D|-----------|-----------------|-----------------|-----------------|
A|--6-3-5-4--|-----------------|-----------------|-----------------|
E|--4-1-3-2--|--4-5^-(1-step)--|--3-4^-(1-step)--|--2-3^-(1-step)--|

            TIME- 3:03

Riff 2 x8
e|--------------------------|
B|--------------------------|
G|------8--6-----5-----4-3--|
D|--5---6--4-444-3-333-2-1--|
A|--3-----------------------|
E|--------------------------|
             ...   ...

Fill 1
e|-----|
B|-----|
G|-----|
D|--2--|
A|--2--|
E|--0--|

            TIME- 3:18

"REVELATIONS!"

            TIME- 3:20

Fig. 2 x6
e|-----------------|--------------------|
B|-----------------|--------------------|
G|------4---3------|------4---3---------|
D|--------------5--|--------------------|
A|--2---2---1------|--2---2---1--3/4\3--|
E|--0-----------3--|--0----------1/2\1--|

            TIME- 3:45

Fig. 3 x4
e|--------|--------|--------|-----|-------|
B|--------|--------|--------|-----|-------|
G|--------|--------|--------|-----|-------|
D|--3-----|--4-----|--5-----|--6--|-------|
A|--1-----|--2-----|--3-----|--4--|--6-7--|
E|----2~--|----3~--|----4~--|-----|--4-5--|
                                     . .

            TIME- 4:02

Riff 1 x4
e|------------------------|------------------------|
B|------------------------|------------------------|
G|---------------------5--|---------------------4--|
D|------------------------|------------------------|
A|--2-2--2-2--2-2-2-2--3--|--2-2--2-2--2-2-2-2--2--|
E|--0-0--0-0--0-0-0-0-----|--0-0--0-0--0-0-0-0-----|
    . .  . .  . . . .        . .  . .  . . . .

e|------------------------|------------------------|
B|------------------------|------------------------|
G|---------------------3--|---------------------4--|
D|------------------------|------------------------|
A|--2-2--2-2--2-2-2-2--1--|--2-2--2-2--2-2-2-2--2--|
E|--0-0--0-0--0-0-0-0-----|--0-0--0-0--0-0-0-0-----|
    . .  . .  . . . .        . .  . .  . . . .

            TIME- 4:28

Fig. 4 x2
e|---------------------|---------------------|
B|---------------------|---------------------|
G|--3-5-6--6/8\6--5-6--|--3-5-6--6/8\6--5-6--|
D|---------------------|---------------------|
A|--1-3-4--4/6\4--3-4--|--1-3-4--4/6\4--3-4--|
E|---------------------|---------------------|

e|---------------------|---------------------|
B|---------------------|---------------------|
G|--3-5-6--6/8\6--5-6--|--3-5-7--7/8\7--6-7--|
D|---------------------|---------------------|
A|--1-3-4--4/6\4--3-4--|--1-3-5--5/6\5--4-5--|
E|---------------------|---------------------|

            TIME- 4:44

Fig. 1D x1
 |                             Right                               |
e|-----------|-----------------|-----------------|-----------------|
B|-----------|-----------------|-----------------|-----------------|
G|-----------|-----------------|-----------------|-----------------|
D|-----------|-----------------|-----------------|-----------------|
A|--6-3-5-4--|-----------------|-----------------|-----------------|
E|--4-1-3-2--|--4-5^-(1-step)--|--3-4^-(1-step)--|--2-3^-(1-step)--|
 |  . . . .                                                        |
 |                                                                 |
 |                             Left                                |
e|-----------|-----------------|-----------------|-----------------|
B|-----------|-----------------|-----------------|-----------------|
G|-----------|-----------------|-----------------|-----------------|
D|-----------|----7^-(1-step)--|----6^-(1-step)--|----5^-(1-step)--|
A|--6-3-5-4--|-----------------|-----------------|-----------------|
E|--4-1-3-2--|-----------------|-----------------|-----------------|
    . . . .

Fig. 1E x2 (song starts fading out)
 |                             Right                               |
e|-----------|-----------------|-----------------|-----------------|
B|-----------|-----------------|-----------------|-----------------|
G|-----------|-----------------|-----------------|-----------------|
D|-----------|-----------------|-----------------|-----------------|
A|--6-3-5-4--|-----------------|-----------------|-----------------|
E|--4-1-3-2--|--4-5^-(1-step)--|--3-4^-(1-step)--|--2-3^-(1-step)--|
 |                                                                 |
 |                             Left                                |
e|-----------|-----------------|-----------------|-----------------|
B|-----------|-----------------|-----------------|-----------------|
G|-----------|-----------------|-----------------|-----------------|
D|-----------|----7^-(1-step)--|----6^-(1-step)--|----5^-(1-step)--|
A|--6-3-5-4--|-----------------|-----------------|-----------------|
E|--4-1-3-2--|-----------------|-----------------|-----------------|

Fig. 1F x1
 |                          Right                         |
e|-----------|-----------------|-----------------|--------|
B|-----------|-----------------|-----------------|--------|
G|-----------|-----------------|-----------------|--------|
D|-----------|-----------------|-----------------|--5--3--|
A|--6-3-5-4--|-----------------|-----------------|--3--1--|
E|--4-1-3-2--|--4-5^-(1-step)--|--3-4^-(1-step)--|--------|
 |                                                        |
 |                          Left                          |
e|-----------|-----------------|-----------------|--------|
B|-----------|-----------------|-----------------|--------|
G|-----------|-----------------|-----------------|--------|
D|-----------|----7^-(1-step)--|----6^-(1-step)--|--5--3--|
A|--6-3-5-4--|-----------------|-----------------|--3--1--|
E|--4-1-3-2--|-----------------|-----------------|--------|

            TIME- 5:01

Fig. 1D x1
 |                             Right                               |
e|-----------|-----------------|-----------------|-----------------|
B|-----------|-----------------|-----------------|-----------------|
G|-----------|-----------------|-----------------|-----------------|
D|-----------|-----------------|-----------------|-----------------|
A|--6-3-5-4--|-----------------|-----------------|-----------------|
E|--4-1-3-2--|--4-5^-(1-step)--|--3-4^-(1-step)--|--2-3^-(1-step)--|
 |  . . . .                                                        |
 |                                                                 |
 |                             Left                                |
e|-----------|-----------------|-----------------|-----------------|
B|-----------|-----------------|-----------------|-----------------|
G|-----------|-----------------|-----------------|-----------------|
D|-----------|----7^-(1-step)--|----6^-(1-step)--|----5^-(1-step)--|
A|--6-3-5-4--|-----------------|-----------------|-----------------|
E|--4-1-3-2--|-----------------|-----------------|-----------------|
    . . . .

Fig. 1E x2 (music fades out completely while playing this)
 |                             Right                               |
e|-----------|-----------------|-----------------|-----------------|
B|-----------|-----------------|-----------------|-----------------|
G|-----------|-----------------|-----------------|-----------------|
D|-----------|-----------------|-----------------|-----------------|
A|--6-3-5-4--|-----------------|-----------------|-----------------|
E|--4-1-3-2--|--4-5^-(1-step)--|--3-4^-(1-step)--|--2-3^-(1-step)--|
 |                                                                 |
 |                             Left                                |
e|-----------|-----------------|-----------------|-----------------|
B|-----------|-----------------|-----------------|-----------------|
G|-----------|-----------------|-----------------|-----------------|
D|-----------|----7^-(1-step)--|----6^-(1-step)--|----5^-(1-step)--|
A|--6-3-5-4--|-----------------|-----------------|-----------------|
E|--4-1-3-2--|-----------------|-----------------|-----------------|

  Visit MetalTabs.com for more metal tablature

bottom separator

Contact Us | Privacy Policy | Disclaimer | Legal Notice
Copyright © 2001-2014 MetalTabs.com. All Rights Reserved.