top separator

Home

Forum

What's New

Submit a Tab

FAQ

Links

Contact Us

Link to Us

MuSpy.com

MetalTabs.com logo

Bands

0-9

A

B

C

D

E

F

G

H

I

J

K

L

M

N

O

P

Q

R

S

T

U

V

W

X

Y

Z

Search

What

Where
 

My Dying Bride - "A Doomed Lover" Guitar Tab

Plain Text Version
More My Dying Bride Tabs

Hits: 6321
Rated: 4.70 out of 5 (37 votes)
Updated: 2010-07-25 15:19:19

 

By:

Paddy

sendpm.gif

email.gif

Important note
This tab is available online because we obtained explicit permission from My Dying Bride or their label.


#----------------------------------PLEASE NOTE---------------------------------#
#This file is the author's own work and represents their interpretation of the #
#song. You may only use this file for private study, scholarship, or research. #
#Unless specified otherwise, this is NOT an official tab from the band members.#
#------------------------------------------------------------------------------#

  Visit MetalTabs.com for more metal tablature
  
================================================================================
                           M Y   D Y I N G   B R I D E

                                        -

                           A   D O O M E D   L O V E R
================================================================================


                        SONGS OF DARKNESS, WORDS OF LIGHT
                          (c) Peaceville Records (2004)
                           http://www.mydyingbride.org/


                      Tune Down a 1/2 Step [7-String Guitars]
                               Bb Eb Ab  Db Gb Bb Eb

                                   Tempo = 96 BPM
                                Time Signature = 4/4



                          -----------------------------
                                  Transcribed by

                                  PADDY MCMULLAN
                            pmtabs (@t) gmail [dot] com

                                   Version 2.1
                                7th  January 2010
                     (Corrections Outlined at Bottom of Tab)
                             -----------------------

                             Tablature Symbols Used:


 p         -  Pull-Off
 h         -  Hammer-On
 \         -  Slide Down to/Down From
 /         -  Slide Up To/Up From
 ( / )     -  Legato Slide
 ( )       -  Ghost Note/Tied Note/Implied Note
 REST      -  Rest and sustain rest for duration of blank space
 |__3__|   -  Triplet notes
 %         -  Whammy Bar Articulation



================================================================================
Section 1.1: Guitar 1 with Heavy Distortion (Play once)
================================================================================


There are numerous variations during this section, and they are all tabbed here
in full for the sake of completeness


  //              Fade  in             \\  1
||-------------------|-------------------||-------------------|
||-------------------|-------------------||-------------------|
||-------------------|-------------------||-------------------|
||--9----------------|--(9)--------------||--(9)--------------|
||--9----------------|--(9)--------------||--(9)--------------|
||--0----------------|--(0)--------------||--(0)--------------|
||--0----------------|--(0)--------------||--(0)--------------|

 2                    3                   4
|--------------------|-------------------|--------------------|
|--------------------|-------------------|--------------------|
|--------------------|-------------------|--------------------|
|--(9)------9--------|--9----------------|--(9)------9--------|
|--(9)------9--------|--9----------------|--(9)------9--------|
|--(0)------7--------|--0----------------|--(0)------7--------|
|--(0)------7--------|--0----------------|--(0)------7--------|

 5                      6                   7
|----------------------|-------------------|-------------------|
|----------------------|-------------------|-------------------|
|----------------------|-------------------|-------------------|
|--(11)----------------|--(11)-------------|--(11)-------------|
|---9------------------|--(9)--------------|--(9)--------------|
|---7------------------|--(7)--------------|--(7)--------------|
|---8------------------|--(8)--------------|--(8)--------------|

 8                   9                   10
|-------------------|-------------------|--------------------|
|-------------------|-------------------|--------------------|
|-------------------|-------------------|--------------------|
|--(11)-------------|--9----------------|--(9)------9--------|
|--(9)--------------|--9----------------|--(9)------9--------|
|--(7)--------------|--0----------------|--(0)------7--------|
|--(8)--------------|--0----------------|--(0)------7--------|

 11                  12                    13
|-------------------|---------------------|--------------------|
|-------------------|---------------------|--------------------|
|-------------------|---------------------|--------------------|
|--9----------------|-(11)------11--------|--11----------------|
|--9----------------|-(9)-------9---------|--9-----------------|
|--0----------------|-(0)-------7---------|--7-----------------|
|--0----------------|-(0)-------7---------|--8-----------------|

 14                  15                   16
|-------------------|--------------------|-------------------|
|-------------------|--------------------|-------------------|
|-------------------|--------------------|-------------------|
|--(11)-------------|---11---------------|--(11)-------------|
|--(9)--------------|---9----------------|--(9)--------------|
|--(7)--------------|--(7)---------------|--(7)--------------|
|--(8)--------------|--(8)---------------|--(8)--------------|

 17                  18                   19
|-------------------|--------------------|-------------------|
|-------------------|--------------------|-------------------|
|-------------------|--------------------|-------------------|
|--9----------------|--(9)------9--------|--9----------------|
|--9----------------|--(9)------9--------|--9----------------|
|--0----------------|--(0)------7--------|--0----------------|
|--0----------------|--(0)------7--------|--0----------------|

 20                   21                   22
|--------------------|--------------------|---------------------|
|--------------------|--------------------|---------------------|
|--------------------|--------------------|---------------------|
|--(9)------9--------|--11----------------|--(11)-----11--------|
|--(9)------9--------|--9-----------------|--(9)------9---------|
|--(0)------7--------|--7-----------------|--(7)------7---------|
|--(0)------7--------|--8-----------------|--(8)------7---------|

 23                  24                  25
|-------------------|-------------------|-------------------|
|-------------------|-------------------|-------------------|
|-------------------|-------------------|-------------------|
|--11---------------|--(11)-------------|--9----------------|
|--9----------------|--(9)--------------|--9----------------|
|--7----------------|--(7)--------------|--0----------------|
|--8----------------|--(8)--------------|--0----------------|

 26                   27                  28
|--------------------|-------------------|--------------------|
|--------------------|-------------------|--------------------|
|--------------------|-------------------|--------------------|
|--(9)------9--------|--9----------------|--(9)------9--------|
|--(9)------9--------|--9----------------|--(9)------9--------|
|--(0)------7--------|--0----------------|--(0)------7--------|
|--(0)------7--------|--0----------------|--(0)------7--------|

 29                   30                    31
|--------------------|---------------------|--------------------|
|--------------------|---------------------|--------------------|
|--------------------|---------------------|--------------------|
|--11----------------|--(11)-----11--------|--11----------------|
|--9-----------------|--(9)------9---------|--9-----------------|
|--7-----------------|--(7)------7---------|--7-----------------|
|--8-----------------|--(8)------7---------|--8-----------------|

 32
|-------------------||
|-------------------||
|-------------------||
|--(11)-------------||
|--(9)--------------||
|--(7)--------------||
|--(8)--------------||



================================================================================
Section 1.2: Guitar 2 with Heavy Distortion (Play once)
================================================================================


There are numerous variations during this section, and they are all tabbed here
in full for the sake of completeness


  //              Fade  in             \\  1
||-------------------|-------------------||-------------------|
||-------------------|-------------------||-------------------|
||-------------------|-------------------||-------------------|
||--9----------------|--(9)--------------||--(9)--------------|
||--9----------------|--(9)--------------||--(9)--------------|
||--0----------------|--(0)--------------||--(0)--------------|
||--0----------------|--(0)--------------||--(0)--------------|

 2                    3                   4
|--------------------|-------------------|--------------------|
|--------------------|-------------------|--------------------|
|--------------------|-------------------|--------------------|
|--(9)------9--------|--9----------------|--(9)------9--------|
|--(9)------9--------|--9----------------|--(9)------9--------|
|--(0)------7--------|--0----------------|--(0)------7--------|
|--(0)------7--------|--0----------------|--(0)------7--------|

 5                   6                   7
|-------------------|-------------------|-------------------|
|-------------------|-------------------|-------------------|
|-------------------|-------------------|-------------------|
|-------------------|-------------------|-------------------|
|--9----------------|--(9)--------------|--(9)--------------|
|--7----------------|--(7)--------------|--(7)--------------|
|--8----------------|--(8)--------------|--(8)--------------|

 8                   9                   10
|-------------------|-------------------|--------------------|
|-------------------|-------------------|--------------------|
|-------------------|-------------------|--------------------|
|-------------------|--9----------------|--(9)------9--------|
|--(9)--------------|--9----------------|--(9)------9--------|
|--(7)--------------|--7----------------|--(7)------7--------|
|--(8)--------------|--0----------------|--(0)------7--------|

 11                  12                   13
|-------------------|--------------------|-------------------|
|-------------------|--------------------|-------------------|
|-------------------|--------------------|-------------------|
|--9----------------|--(9)------9--------|-------------------|
|--9----------------|--(9)------9--------|--9----------------|
|--0----------------|--(0)------7--------|--7----------------|
|--0----------------|--(0)------7--------|--8----------------|

 14                     15                  16
|----------------------|-------------------|-------------------------|
|----------------------|-------------------|-------------------------|
|----------------------|-------------------|-------------------------|
|----------------------|-------------------|-------------------------|
|--(9)-----------------|--(9)--------------|-(9)---------------------|
|--(7)-----------------|--(7)--------------|-(7)---------------------|
|--(8)---------8--8----|--(8)--------------|-(8)-8--8 p7--7b8r7------|

 17                  18                   19
|-------------------|--------------------|-------------------|
|-------------------|--------------------|-------------------|
|-------------------|--------------------|-------------------|
|--9----------------|--(9)------9--------|--9----------------|
|--9----------------|--(9)------9--------|--9----------------|
|--7----------------|--(7)------7--------|--0----------------|
|--0----------------|--(0)------7--------|--0----------------|

 20                   21                  22
|--------------------|-------------------|---------------------|
|--------------------|-------------------|---------------------|
|--------------------|-------------------|---------------------|
|--(9)---------------|-------------------|-----------11--------|
|--(9)------9--------|--9----------------|--(9)------9---------|
|--(0)------7--------|--7----------------|--(7)------7---------|
|--(0)------7--------|--8----------------|--(8)------7---------|

 23                   24                  25
|--------------------|-------------------|-------------------|
|--------------------|-------------------|-------------------|
|--------------------|-------------------|-------------------|
|--11----------------|--(11)-------------|--9----------------|
|--9-----------------|--(9)--------------|--9----------------|
|--7-----------------|--(7)--------------|--0----------------|
|--8-----------------|--(8)--------------|--0----------------|

 26                   27                  28
|--------------------|-------------------|--------------------|
|--------------------|-------------------|--------------------|
|--------------------|-------------------|--------------------|
|--(9)------9--------|--9----------------|--(9)------9--------|
|--(9)------9--------|--9----------------|--(9)------9--------|
|--(0)------7--------|--0----------------|--(0)------7--------|
|--(0)------7--------|--0----------------|--(0)------7--------|

 29                  30                   31
|-------------------|--------------------|-------------------|
|-------------------|--------------------|-------------------|
|-------------------|--------------------|-------------------|
|-------------------|--------------------|-------------------|
|--9----------------|--(9)------9--------|--9----------------|
|--7----------------|--(7)------7--------|--7----------------|
|--8----------------|--(8)------7--------|--8----------------|

 32
|-------------------||
|-------------------||
|-------------------||
|-------------------||
|--(9)--------------||
|--(7)--------------||
|--(8)--------------||



================================================================================
Section 2: Guitars 1 & 2 (Play once)
================================================================================


  1                   2                       3
||-------------------|-----------------------|-------------------|
||-------------------|-----------------------|-------------------|
||-------------------|-----------------------|-------------------|
||--9----------------|--(9)------------------|--9----------------|
||--9----------------|--(9)------------------|--9----------------|
||--7----------------|--(7)------------------|--7----------------|
||--0----------------|--(0)------8----7 h 8--|--0----------------|

 4                       5                    6
|-----------------------|--------------------|-------------------|
|-----------------------|--------------------|-------------------|
|-----------------------|--------------------|-------------------|
|--(9)------------------|--------------------|-------------------|
|--(9)------------------|--6-------(6)-------|--(6)--------------|
|--(7)------------------|-----------4--------|--(4)--------------|
|--(0)------8----7 h 8--|--------------------|-------------------|

 7                   8                      9
|-------------------|----------------------|-------------------|
|-------------------|----------------------|-------------------|
|-------------------|----------------------|-------------------|
|--6----------------|--(6)-------------- / |--9----------------|
|--6----------------|--(6)-------------- / |--9----------------|
|--4----------------|--(4)-------------- / |--7----------------|
|--4----------------|--(4)-----------------|--0----------------|

 10                      11                  12
|-----------------------|-------------------|-----------------------|
|-----------------------|-------------------|-----------------------|
|-----------------------|-------------------|-----------------------|
|--(9)------------------|--9----------------|--(9)------------------|
|--(9)------------------|--9----------------|--(9)------------------|
|--(7)------------------|--0----------------|--(0)------------------|
|--(0)------8----7 h 8--|--0----------------|--(0)------8----7 h 8--|

 13                  14                  15
|-------------------|-------------------|-------------------|
|-------------------|-------------------|-------------------|
|-------------------|-------------------|-------------------|
|--6----------------|--(6)--------------|--(6)--------------|
|--6----------------|--(6)--------------|--(6)--------------|
|--4----------------|--(4)--------------|--(4)--------------|
|--4----------------|--(4)--------------|--(4)--------------|

 16                     17                  18
|----------------------|-------------------|-----------------------|
|----------------------|-------------------|-----------------------|
|----------------------|-------------------|-----------------------|
|--(6)-------------- / |--9----------------|--(9)------------------|
|--(6)-------------- / |--9----------------|--(9)------------------|
|--(4)-------------- / |--7----------------|--(7)------------------|
|--(4)-----------------|--0----------------|--(0)------8----7 h 8--|

 19                  20                      21
|-------------------|-----------------------|-------------------|
|-------------------|-----------------------|-------------------|
|-------------------|-----------------------|-------------------|
|--9----------------|--(9)------------------|--6----------------|
|--9----------------|--(9)------------------|--6----------------|
|--7----------------|--(7)------------------|--4----------------|
|--0----------------|--(0)------8----7 h 8--|--4----------------|

 22                  23                  24
|-------------------|-------------------|-------------------||
|-------------------|-------------------|-------------------||
|-------------------|-------------------|-------------------||
|--6----------------|--(6)--------------|--(6)--------------||
|--6----------------|--(6)--------------|--(6)----------- / ||
|--4----------------|--(4)--------------|--(4)--------------||
|--4----------------|--(4)--------------|--(4)--------------||




================================================================================
Section 3.1: Guitar 1 (Play once)
================================================================================


  1                   2                    3
||-------------------|--------------------|-------------------|
||-------------------|--------------------|-------------------|
||-------------------|--------------------|-------------------|
||--9----------------|--(9)---------------|-------------------|
||--9----------------|--(9)------9--------|--9----------------|
||--0----------------|--(0)------7--------|--0----------------|
||--0----------------|--(0)------7--------|--0----------------|

 4                    5                    6
|--------------------|--------------------|-------------------|
|--------------------|--------------------|-------------------|
|--------------------|--------------------|-------------------|
|-----------9--------|--(9)---------------|--(9)--------------|
|--(9)------9--------|---9----------------|--(9)--------------|
|--(0)------7--------|---7----------------|--(7)--------------|
|--(0)------7--------|---8----------------|--(8)--------------|

 7                   8                   9
|-------------------|-------------------|-------------------|
|-------------------|-------------------|-------------------|
|-------------------|-------------------|-------------------|
|--(9)--------------|--(9)--------------|--9----------------|
|--(9)--------------|--(9)--------------|--9----------------|
|--(7)--------------|--(7)--------------|--0----------------|
|--(8)--------------|--(8)--------------|--0----------------|

 10                   11                  12
|--------------------|-------------------|--------------------|
|--------------------|-------------------|--------------------|
|--------------------|-------------------|--------------------|
|--(9)------9--------|--9----------------|--(9)------9--------|
|--(9)------9--------|--9----------------|--(9)------9--------|
|--(0)------7--------|--0----------------|--(0)------7--------|
|--(0)------7--------|--0----------------|--(0)------7--------|

 13                  14                  15
|-------------------|-------------------|-------------------|
|-------------------|-------------------|-------------------|
|-------------------|-------------------|-------------------|
|--9----------------|--(9)--------------|--9----------------|
|--9----------------|--(9)--------------|--9----------------|
|--7----------------|--(7)--------------|--7----------------|
|--8----------------|--(8)--------------|--8----------------|

 16
|----------------------||
|----------------------||
|----------------------||
|----------------------||
|----------------------||
|------------7~~-------||
|--8~~-----------------||



================================================================================
Section 3.2: Guitar 2 (Play once)
================================================================================


  1                   2                    3
||-------------------|--------------------|-------------------|
||-------------------|--------------------|-------------------|
||-------------------|--------------------|-------------------|
||-------------------|-----------9--------|--9----------------|
||--9----------------|--(9)------9--------|--9----------------|
||--0----------------|--(0)------7--------|--0----------------|
||--0----------------|--(0)------7--------|--0----------------|

 4                    5                   6
|--------------------|-------------------|-------------------|
|--------------------|-------------------|-------------------|
|--------------------|-------------------|-------------------|
|--(9)------9--------|-------------------|-------------------|
|--(9)------9--------|--9----------------|--(9)--------------|
|--(0)------7--------|--7----------------|--(7)--------------|
|--(0)------7--------|--8----------------|--(8)--------------|

 7                   8                   9
|-------------------|-------------------|-------------------|
|-------------------|-------------------|-------------------|
|-------------------|-------------------|-------------------|
|-------------------|-------------------|--9----------------|
|--(9)--------------|--(9)--------------|--9----------------|
|--(7)--------------|--(7)--------------|--0----------------|
|--(8)--------------|--(8)--------------|--0----------------|

 10                   11                  12
|--------------------|-------------------|--------------------|
|--------------------|-------------------|--------------------|
|--------------------|-------------------|--------------------|
|--(9)------9--------|--9----------------|--(9)------9--------|
|--(9)------9--------|--9----------------|--(9)------9--------|
|--(0)------7--------|--0----------------|--(0)------7--------|
|--(0)------7--------|--0----------------|--(0)------7--------|

 13                  14                   15
|-------------------|--------------------|-------------------|
|-------------------|--------------------|-------------------|
|-------------------|--------------------|-------------------|
|-------------------|--------------------|-------------------|
|--9----------------|--(9)------9--------|--9----------------|
|--7----------------|--(7)------7--------|--7----------------|
|--8----------------|--(8)------7--------|--8----------------|

 16
|----------------------||
|----------------------||
|----------------------||
|----------------------||
|----------------------||
|------------7~~-------||
|--8~~-----------------||



================================================================================
Section 4.1: Guitars 1 (Play once)
================================================================================


  1                    2                   3
||--------------------|-------------------|-------------------|
||--------------------|-------------------|-------------------|
||--------------------|-------------------|-------------------|
||--10----------------|--(10)-------------|--(10)-------------|
||--10----------------|--(10)-------------|--(10)-------------|
||--8-----------------|--(8)--------------|--(8)--------------|
||--8-----------------|--(8)--------------|--(8)--------------|

 4                           5                    6
|---------------------------|--------------------|-------------------|
|---------------------------|--------------------|-------------------|
|---------------------------|--------------------|-------------------|
|--(10)-----10--10--10--10--|--11----------------|--(11)-------------|
|--(10)-----10--10--10--10--|--11----------------|--(11)-------------|
|--(8)------8---8---8---8---|--9-----------------|--(9)--------------|
|--(8)------8---8---8---8---|--9-----------------|--(9)--------------|

 7                        8
|------------------------|-----------------------------------|
|------------------------|-----------------------------------|
|------------------------|-----------------------------------|
|--(11)------------11-11-|--11 / 14--14--14--14--13--13--10--|
|--(11)------------11-11-|--11 / 14--14--14--14--13--13--10--|
|--(9)-------------9--9--|--9  / 12--12--12--12--11--11--8---|
|--(9)-------------9--9--|--9  / 12--12--12--12--11--11--8---|

 9                    10                  11
|--------------------|-------------------|-------------------|
|--------------------|-------------------|-------------------|
|--------------------|-------------------|-------------------|
|--10----------------|--(10)-------------|--(10)-------------|
|--10----------------|--(10)-------------|--(10)-------------|
|--8-----------------|--(8)--------------|--(8)--------------|
|--8-----------------|--(8)--------------|--(8)--------------|

 12                          13                   14
|---------------------------|--------------------|-------------------|
|---------------------------|--------------------|-------------------|
|---------------------------|--------------------|-------------------|
|--(10)-----10--10--10--10--|--11----------------|--(11)-------------|
|--(10)-----10--10--10--10--|--11----------------|--(11)-------------|
|--(8)------8---8---8---8---|--9-----------------|--(9)--------------|
|--(8)------8---8---8---8---|--9-----------------|--(9)--------------|

 15                  16                  17
|-------------------|-------------------|--------------------|
|-------------------|-------------------|--------------------|
|-------------------|-------------------|--------------------|
|--(11)-------------|--(11)-------------|--10----------------|
|--(11)-------------|--(11)-------------|--10----------------|
|--(9)--------------|--(9)--------------|--8-----------------|
|--(9)--------------|--(9)--------------|--8-----------------|

 18                  19                  20
|-------------------|-------------------|---------------------------|
|-------------------|-------------------|---------------------------|
|-------------------|-------------------|---------------------------|
|--(10)-------------|--(10)-------------|--(10)-----10--10--10--10--|
|--(10)-------------|--(10)-------------|--(10)-----10--10--10--10--|
|--(8)--------------|--(8)--------------|--(8)------8---8---8---8---|
|--(8)--------------|--(8)--------------|--(8)------8---8---8---8---|

 21                   22                  23
|--------------------|-------------------|-------------------|
|--------------------|-------------------|-------------------|
|--------------------|-------------------|-------------------|
|--11----------------|--(11)-------------|--(11)-------------|
|--11----------------|--(11)-------------|--(11)-------------|
|--9-----------------|--(9)--------------|--(9)--------------|
|--9-----------------|--(9)--------------|--(9)--------------|

 24                  25                   26
|-------------------|--------------------|-------------------|
|-------------------|--------------------|-------------------|
|-------------------|--------------------|-------------------|
|--(11)-------------|--10----------------|--(10)-------------|
|--(11)-------------|--10----------------|--(10)-------------|
|--(9)--------------|--8-----------------|--(8)--------------|
|--(9)--------------|--8-----------------|--(8)--------------|

 27                  28                          29
|-------------------|---------------------------|--------------------|
|-------------------|---------------------------|--------------------|
|-------------------|---------------------------|--------------------|
|--(10)-------------|--(10)-----10--10--10--10--|--11----------------|
|--(10)-------------|--(10)-----10--10--10--10--|--11----------------|
|--(8)--------------|--(8)------8---8---8---8---|--9-----------------|
|--(8)--------------|--(8)------8---8---8---8---|--9-----------------|

 30                  31                   32
|-------------------|--------------------|-----------------------|
|-------------------|--------------------|-----------------------|
|-------------------|--------------------|-----------------------|
|--(11)-------------|--11----------------|--(11)---------11--11--|
|--(11)-------------|--11----------------|--(11)---------11--11--|
|--(9)--------------|--9-----------------|--(9)----------9---9---|
|--(9)--------------|--9-----------------|--(9)----------9---9---|

 33                         34
|--------------------------|--------------------------|
|--------------------------|--------------------------|
|--------------------------|--------------------------|
|--------------------------|--------------------------|
|--------------------------|--------------------------|
|--8--8--8--8--8--8--8--8--|--8--8--8--8--8--8--8--8--|
|--------------------------|--------------------------|

 35                         36
|--------------------------|--------------------------------||
|--------------------------|--------------------------------||
|--------------------------|--------------------------------||
|--------------------------|----------------10--10--10--10--||
|--------------------------|--------10--10--10--10--10--10--||
|--8--8--8--8--8--8--8--8--|--8--8--8---8---8---8---8---8---||
|--------------------------|----------------8---8---8---8---||



================================================================================
Section 4.2: Guitars 2 (Play once)
================================================================================


  1                    2                   3
||--------------------|-------------------|-------------------|
||--------------------|-------------------|-------------------|
||--------------------|-------------------|-------------------|
||--10----------------|--(10)-------------|--(10)-------------|
||--10----------------|--(10)-------------|--(10)-------------|
||--8-----------------|--(8)--------------|--(8)--------------|
||--8-----------------|--(8)--------------|--(8)--------------|

 4                           5                    6
|---------------------------|--------------------|-------------------|
|---------------------------|--------------------|-------------------|
|---------------------------|--------------------|-------------------|
|--(10)-----10--10--10--10--|--11----------------|--(11)-------------|
|--(10)-----10--10--10--10--|--11----------------|--(11)-------------|
|--(8)------8---8---8---8---|--9-----------------|--(9)--------------|
|--(8)------8---8---8---8---|--9-----------------|--(9)--------------|

 7                        8
|------------------------|-----------------------------------|
|------------------------|-----------------------------------|
|------------------------|-----------------------------------|
|--(11)------------11-11-|--11 / 14--14--14--14--13--13--10--|
|--(11)------------11-11-|--11 / 14--14--14--14--13--13--10--|
|--(9)-------------9--9--|--9  / 12--12--12--12--11--11--8---|
|--(9)-------------9--9--|--9  / 12--12--12--12--11--11--8---|

 9                    10                  11
|--------------------|-------------------|-------------------|
|--------------------|-------------------|-------------------|
|--------------------|-------------------|-------------------|
|--10----------------|--(10)-------------|--(10)-------------|
|--10----------------|--(10)-------------|--(10)-------------|
|--8-----------------|--(8)--------------|--(8)--------------|
|--8-----------------|--(8)--------------|--(8)--------------|

 12                          13                   14
|---------------------------|--------------------|-------------------|
|---------------------------|--------------------|-------------------|
|---------------------------|--------------------|-------------------|
|--(10)-----10--10--10--10--|--11----------------|--(11)-------------|
|--(10)-----10--10--10--10--|--11----------------|--(11)-------------|
|--(8)------8---8---8---8---|--9-----------------|--(9)--------------|
|--(8)------8---8---8---8---|--9-----------------|--(9)--------------|

 15                  16                  17
|-------------------|-------------------|--------------------|
|-------------------|-------------------|--------------------|
|-------------------|-------------------|--------------------|
|--(11)-------------|--(11)-------------|--10----------------|
|--(11)-------------|--(11)-------------|--10----------------|
|--(9)--------------|--(9)--------------|--8-----------------|
|--(9)--------------|--(9)--------------|--8-----------------|

 18                  19                  20
|-------------------|-------------------|---------------------------|
|-------------------|-------------------|---------------------------|
|-------------------|-------------------|---------------------------|
|--(10)-------------|--(10)-------------|--(10)-----10--10--10--10--|
|--(10)-------------|--(10)-------------|--(10)-----10--10--10--10--|
|--(8)--------------|--(8)--------------|--(8)------8---8---8---8---|
|--(8)--------------|--(8)--------------|--(8)------8---8---8---8---|

 21                   22                  23
|--------------------|-------------------|-------------------|
|--------------------|-------------------|-------------------|
|--------------------|-------------------|-------------------|
|--11----------------|--(11)-------------|--(11)-------------|
|--11----------------|--(11)-------------|--(11)-------------|
|--9-----------------|--(9)--------------|--(9)--------------|
|--9-----------------|--(9)--------------|--(9)--------------|

 24                            25                   26
|-----------------------------|--------------------|-------------------|
|-----------------------------|--------------------|-------------------|
|-----------------------------|--------------------|-------------------|
|--(11)-----------------------|--10----------------|--(10)-------------|
|--(11)-----(10/11)--(11\10)--|--10----------------|--(10)-------------|
|--(9)------(8 / 9)--(9 \8 )--|--8-----------------|--(8)--------------|
|--(9)------(8 / 9)--(9 \8 )--|--8-----------------|--(8)--------------|

 27                  28                          29
|-------------------|---------------------------|--------------------|
|-------------------|---------------------------|--------------------|
|-------------------|---------------------------|--------------------|
|--(10)-------------|--(10)-----10--10--10--10--|--11----------------|
|--(10)-------------|--(10)-----10--10--10--10--|--11----------------|
|--(8)--------------|--(8)------8---8---8---8---|--9-----------------|
|--(8)--------------|--(8)------8---8---8---8---|--9-----------------|

 30                  31                   32
|-------------------|--------------------|-----------------------|
|-------------------|--------------------|-----------------------|
|-------------------|--------------------|-----------------------|
|--(11)-------------|--11----------------|--(11)---------11--11--|
|--(11)-------------|--11----------------|--(11)---------11--11--|
|--(9)--------------|--9-----------------|--(9)----------9---9---|
|--(9)--------------|--9-----------------|--(9)----------9---9---|

 33                         34
|--------------------------|--------------------------|
|--------------------------|--------------------------|
|--------------------------|--------------------------|
|--10-10-10-10-10-10-10-10-|--10-10-10-10-10-10-10-10-|
|--10-10-10-10-10-10-10-10-|--10-10-10-10-10-10-10-10-|
|--8--8--8--8--8--8--8--8--|--8--8--8--8--8--8--8--8--|
|--8--8--8--8--8--8--8--8--|--8--8--8--8--8--8--8--8--|

 35                         36
|--------------------------|--------------------------||
|--------------------------|--------------------------||
|--------------------------|--------------------------||
|--10-10-10-10-10-10-10-10-|--10-10-10-10-10-10-10-10-||
|--10-10-10-10-10-10-10-10-|--10-10-10-10-10-10-10-10-||
|--8--8--8--8--8--8--8--8--|--8--8--8--8--8--8--8--8--||
|--8--8--8--8--8--8--8--8--|--8--8--8--8--8--8--8--8--||



================================================================================
Section 4.3: Guitar 3 with Heavy Distortion (Play once)
================================================================================


                                                        |__3___|
||---------------------------|----------------------------------------|
||---------------------------|----------------------------------------|
||-(5/12)-----------12 h 13--|--(12     \ 10)--12--13--(12h13p12\10)--|
||---------------------------|----------------------------------------|
||---------------------------|----------------------------------------|
||---------------------------|----------------------------------------|
||---------------------------|----------------------------------------|

            |___3__|           |___3__|
|-----------------------------------------|
|-----------------------------------------|
|--12------(12h13p12)\10------(10h12p10)\ |
|-----------------------------------------|
|-----------------------------------------|
|-----------------------------------------|
|-----------------------------------------|


|---------------------------------------|--------------------|
|---------------------------------------|--------------------|
|--9 h 10--9 h 10--(10/13)--12--12\ ----|--------------------|
|------------------------------------5--|--6-----------------|
|---------------------------------------|-----------8--------|
|---------------------------------------|--------------------|
|---------------------------------------|--------------------|


|---------------------|----------------------|-----------------------------|
|---------------------|----------------------|-----------------------------|
|---------------------|----------------------|-------------------------5 / |
|------------------6--|--6--------6------6-6-|--(6/9)--9--9--9--8--8\ -----|
|--(8)----------------|----------------------|-----------------------------|
|---------------------|----------------------|-----------------------------|
|---------------------|----------------------|-----------------------------|

                                             |__3___|
|--------------------|-------------------------------------|
|--------------------|-------------------------------------|
|--12----------------|--12----12----12--13--(12h13p12)\10--|
|--------------------|-------------------------------------|
|--------------------|-------------------------------------|
|--------------------|-------------------------------------|
|--------------------|-------------------------------------|

             |__3___|           |__3___|
|------------------------------------------|------------------------------|
|------------------------------------------|------------------------------|
|--12-------(12h13p12)\10------(10h12p10)\ |--9 h 10--9----9 h 10--9\ ----|
|------------------------------------------|---------------------------5--|
|------------------------------------------|------------------------------|
|------------------------------------------|------------------------------|
|------------------------------------------|------------------------------|


|-------------------|---------------------|--------------------|
|-------------------|---------------------|--------------------|
|-------------------|-----------6---(6)---|--------------------|
|--6----------------|--6-------(6)---6----|--6-----------------|
|-------------------|---------------------|-----------8--------|
|-------------------|---------------------|--------------------|
|-------------------|---------------------|--------------------|


|--------------------|-----------------------|
|--------------------|-----------------------|
|--------------------|-(10/12)---------------|
|---------------11\ -|-----------------------|
|--(8)----------11\ -|-----------------------|
|--------------------|-----------------------|
|--------------------|-----------------------|

                      |__3___|
|-----------------------------------|-------------------------------|
|-----------------------------------|-------------------------------|
|--(12)------12--13--(12h13p12)\10--|--12----12 h 15----12--12--13--|
|-----------------------------------|-------------------------------|
|-----------------------------------|-------------------------------|
|-----------------------------------|-------------------------------|
|-----------------------------------|-------------------------------|


|------------------------------------|-------------------|
|------------------------------------|-------------------|
|--(13)--12--12--15--15--12--12\ ----|-------------------|
|---------------------------------5--|--6----------------|
|------------------------------------|-------------------|
|------------------------------------|-------------------|
|------------------------------------|-------------------|


|------------------------|-----------------------|
|------------------------|-----------------------|
|------------------------|-----------------------|
|--(6)------(6 /5)-5--5--|--(5/ 6)-----6------8--|
|------------------------|-----------------------|
|------------------------|-----------------------|
|------------------------|-----------------------|


|---------------------------|-----------------------|
|---------------------------|-----------------------|
|------------------------5--|--(10/12)--------------|
|-(8)--6----5--(5/6)--6-----|-----------------------|
|---------------------------|-----------------------|
|---------------------------|-----------------------|
|---------------------------|-----------------------|

                        |___3__|
|-------------------------------------|
|-------------------------------------|
|--(12)--------12--13--(12h13p12)\10--|
|-------------------------------------|
|-------------------------------------|
|-------------------------------------|
|-------------------------------------|

            |__3___|           |___3__|
|-----------------------------------------|
|-----------------------------------------|
|--12------(12h13p12)\10------(10h12p10)--|
|-----------------------------------------|
|-----------------------------------------|
|-----------------------------------------|
|-----------------------------------------|


|--------------------------------------|--------------------|
|--------------------------------------|--------------------|
|--10 h 12--(12/13)--(13\12)--12\ -----|-----------6--------|
|--------------------------------- \6--|--6-------(6)-------|
|--------------------------------------|--------------------|
|--------------------------------------|--------------------|
|--------------------------------------|--------------------|

                                              % Steadily depress bar
                                                5 steps over 5 bars
|--------------------|---------------------|-------------------|
|--------------------|---------------------|-------------------|
|-(6)------(6)-------|--6-------(6)--------|-------------------|
|-(6)-------6--------|-(6)-------6---------|--%----------------|
|--------------------|------------------8--|--8               -|
|--------------------|---------------------|-------------------|
|--------------------|---------------------|-------------------|


|-------------------|-------------------|-------------------|
|-------------------|-------------------|-------------------|
|-------------------|-------------------|-------------------|
|-------------------|-------------------|-------------------|
|--(8)-            -|--(8)-            -|--(8)-            -|
|-------------------|-------------------|-------------------|
|-------------------|-------------------|-------------------|


|-------------------||
|-------------------||
|-------------------||
|-------------------||
|--(8)-            -||
|-------------------||
|-------------------||



================================================================================
Section 5.1: Guitars 1 & 2 (Play 10 times)
================================================================================


||----------------------------------|----------------------------------|
||----------------------------------|----------------------------------|
||----------------------------------|----------------------------------|
||--10--10--10--10--10--10--10--10--|--10--10--10--10------------------|
||--10--10--10--10--10--10--10--10--|--10--10--10--10--11--11--11--11--|
||--8---8---8---8---8---8---8---8---|--8---8---8---8---11--11--11--11--|
||--8---8---8---8---8---8---8---8---|--8---8---8---8---9---9---9---9---|


|------------------------------|---------------------------|
|------------------------------|---------------------------|
|------------------------------|---------------------------|
|------------------------------|---------------------------|
|--10--10--10--10--8--8--8--8--|--8--8--8--8--8--8--8--8 / |
|--10--10--10--10--8--8--8--8--|--8--8--8--8--8--8--8--8 / |
|--8---8---8---8---6--6--6--6--|--6--6--6--6--6--6--6--6 / |


|----------------------------------|------------------------------------|
|----------------------------------|------------------------------------|
|----------------------------------|------------------------------------|
|----------------------------------|----------------------------8---8---|
|--11--11--11--11--11--11--11--11--|--11--11--11--11--11 \ 10---10--10--|
|--11--11--11--11--11--11--11--11--|--11--11--11--11--11 \ 10---8---8---|
|--9---9---9---9---9---9---9---9---|--9---9---9---9---9  \ 8----8---8---|


|----------------------------------|----------------------------------| |
|----------------------------------|----------------------------------| |
|----------------------------------|----------------------------------|*|
|--10--10--10--10--10--10--10--10--|--10--10--10--10--10--10--10--10--| |
|--10--10--10--10--10--10--10--10--|--10--10--10--10--10--10--10--10--|*|
|--8---8---8---8---8---8---8---8---|--8---8---8---8---8---8---8---8---| |
|--8---8---8---8---8---8---8---8---|--8---8---8---8---8---8---8---8---| |



After the first time replace bar 4 with the following:


| |---------------------------------------|
| |---------------------------------------|
|6|---------------------------------------|
|/|---------------------------------------|
|4|--8--8--8--8--8--8--8--8--8--8--8--8 / |
| |--8--8--8--8--8--8--8--8--8--8--8--8 / |
| |--6--6--6--6--6--6--6--6--6--6--6--6 / |



================================================================================
Section 5.2: Guitar 3 (Play 20 times)
================================================================================


||-------------------|--------------------|--------------------|
||-------------------|--------------------|--------------------|
||--5----------------|--(5)------7--------|--4--------5--------|
||-------------------|--------------------|--------------------|
||-------------------|--------------------|--------------------|
||-------------------|--------------------|--------------------|
||-------------------|--------------------|--------------------|


|-------------------| |
|-------------------| |
|--(5)--------------|*|
|-------------------| |
|-------------------|*|
|-------------------| |
|-------------------| |



On the 12th and 16th repeats hold the first note for all 4 bars, ending the song
by holding the note until fade



After the first time replace bar 4 with the following:


| |-------------------| |
| |-------------------| |
|6|--(5)--------------|*|
|/|-------------------| |
|4|-------------------|*|
| |-------------------| |
| |-------------------| |



================================================================================
Section 5.3: Guitar 4 with Heavy Distortion (Play 9 times)
================================================================================


Rest for 7 bars before joining in


                    //             Fade in            \\
||----------------------|----------------------------------||
||----------------------|----------------------------------||
||--R-             -----|----------------------------------||
||--E-             -10--|--10--10--10--10--10--10--10--10--||
||--S-             -----|----------------------------------||
||--T-             -----|----------------------------------||
||----------------------|----------------------------------||


|----------------------------|------------------------------|
|----------------------------|------------------------------|
|----------------------------|------------------------------|
|--10--9------------------9--|--10--9--10--9--10--9--10--9--|
|---------11--10------11-----|------------------------------|
|----------------------------|------------------------------|
|----------------------------|------------------------------|


|----------------------------| |---------------------------------------------|
|----------------------------| |---------------------------------------------|
|----------------------------|6|---------------------------------------------|
|--10--9------------------9--|/|--10--9--10--9--10--9--10--9--10--12--10--9--|
|---------11--10------11-----|4|---------------------------------------------|
|----------------------------| |---------------------------------------------|
|----------------------------| |---------------------------------------------|


| |------------------------------|------------------------------|
| |------------------------------|------------------------------|
|4|------------------------------|------------------------------|
|/|--10--9--------------------9--|--10--9--10--9--10--9--10--9--|
|4|---------11--10----10--11-----|------------------------------|
| |------------------------------|------------------------------|
| |------------------------------|------------------------------|


|------------------------------|------------------------------| |
|------------------------------|------------------------------| |
|------------------------------|------------------------------|*|
|--10--9--------------------9--|--10--9--10--9--10--9--10--9--| |
|---------11--10----10--11-----|------------------------------|*|
|------------------------------|------------------------------| |
|------------------------------|------------------------------| |



================================================================================
Section 5.4: Guitar 5 with Heavy Distortion (Play once)
================================================================================


Rest for 16 bars before joining in


  1                   2                      3
||-------------------|----------------------|----------------------|
||-------------------|----------------------|----------------------|
||-------------------|----------------------|----------------------|
||--5----------------|--(5)------5 h 6------|--5------- \ 3--------|
||-------------------|----------------------|----------------------|
||-------------------|----------------------|----------------------|
||-------------------|----------------------|----------------------|

   4                               5                     6
| |-----------------------------| |---------------------|----------------------|
| |-----------------------------| |---------------------|----------------------|
|6|-----------------------------|4|---------------------|----------------------|
|/|--(3)---------------------3--|/|--(3/6)--------------|--(6)------6 h 8------|
|4|-----------------------------|4|---------------------|----------------------|
| |-----------------------------| |---------------------|----------------------|
| |-----------------------------| |---------------------|----------------------|

 7                   8                     9
|-------------------|---------------------|--------------------|
|-------------------|---------------------|--------------------|
|-------------------|------------------3--|--5--------5--------|
|--5----------------|--(5)----------------|--------------------|
|-------------------|---------------------|--------------------|
|-------------------|---------------------|--------------------|
|-------------------|---------------------|--------------------|

 10                       11
|------------------------|---------------------|
|------------------------|---------------------|
|-(5)-----5--(5/8)----8--|--7------7--5--------|
|------------------------|---------------------|
|------------------------|---------------------|
|------------------------|---------------------|
|------------------------|---------------------|

   12                              13
| |-----------------------------| |---------------------|
| |-----------------------------| |---------------------|
|6|--(5)---------------------5--|4|--(5/8)--------------|
|/|-----------------------------|/|---------------------|
|4|-----------------------------|4|---------------------|
| |-----------------------------| |---------------------|
| |-----------------------------| |---------------------|

 14                        15                  16
|-------------------------|-------------------|-------------------|
|-------------------------|-------------------|-------------------|
|--(8)----(8/10)----10----|--5----------------|--(5)--------------|
|-------------------------|-------------------|-------------------|
|-------------------------|-------------------|-------------------|
|-------------------------|-------------------|-------------------|
|-------------------------|-------------------|-------------------|

 17                  18                      19
|-------------------|-----------------------|----------------------|
|-------------------|-----------------------|----------------------|
|-------------------|-----------------------|----------------------|
|--5----------------|--(5)----5 h 6------6--|--5------5 \ 3--------|
|-------------------|-----------------------|----------------------|
|-------------------|-----------------------|----------------------|
|-------------------|-----------------------|----------------------|

   20                              21
| |-----------------------------| |---------------------|
| |-----------------------------| |---------------------|
|6|-----------------------------|4|---------------------|
|/|--(3)---------------------3--|/|--(3/6)--------------|
|4|-----------------------------|4|---------------------|
| |-----------------------------| |---------------------|
| |-----------------------------| |---------------------|

 22                       23                  24
|------------------------|-------------------|---------------------|
|------------------------|-------------------|---------------------|
|------------------------|-------------------|------------------3--|
|--(6)----6 h 8------8 \ | -5----------------|--(5)----------------|
|------------------------|-------------------|---------------------|
|------------------------|-------------------|---------------------|
|------------------------|-------------------|---------------------|

 25                  26                       27
|-------------------|------------------------|----------------------|
|-------------------|------------------------|----------------------|
|--5----------------|--(5)----5--(5/8)----8--|--7------7 \ 5--------|
|-------------------|------------------------|----------------------|
|-------------------|------------------------|----------------------|
|-------------------|------------------------|----------------------|
|-------------------|------------------------|----------------------|

   28                              29
| |-----------------------------| |---------------------|
| |-----------------------------| |---------------------|
|6|--(5)---------------------5--|4|--(5/8)--------------|
|/|-----------------------------|/|---------------------|
|4|-----------------------------|4|---------------------|
| |-----------------------------| |---------------------|
| |-----------------------------| |---------------------|

 30                        31                  32
|-------------------------|-------------------|-------------------|
|-------------------------|-------------------|-------------------|
|--(8)------(8/10)----- \ | -5----------------|--(5)--------------|
|-------------------------|-------------------|-------------------|
|-------------------------|-------------------|-------------------|
|-------------------------|-------------------|-------------------|
|-------------------------|-------------------|-------------------|

 33                  34                     35
|-------------------|----------------------|--------------------|
|-------------------|----------------------|--------------------|
|-------------------|----------------------|--------------------|
|--5----------------|--(5)------(5/6)------|--5--------3--------|
|-------------------|----------------------|--------------------|
|-------------------|----------------------|--------------------|
|-------------------|----------------------|--------------------|

   36                              37                    38
| |-----------------------------| |---------------------|----------------------|
| |-----------------------------| |---------------------|----------------------|
|6|-----------------------------|4|---------------------|----------------------|
|/|--(3)---------------------3--|/|--(3/6)--------------|--(6)----6 h 8--------|
|4|-----------------------------|4|---------------------|----------------------|
| |-----------------------------| |---------------------|----------------------|
| |-----------------------------| |---------------------|----------------------|

 39                  40                     41
|-------------------|----------------------|-------------------|
|-------------------|----------------------|-------------------|
|-------------------|-------------------3--|--5----------------|
|--5----------------|--(6)------5----5-----|-------------------|
|-------------------|----------------------|-------------------|
|-------------------|----------------------|-------------------|
|-------------------|----------------------|-------------------|

 42                     43
|----------------------|------------------------|
|----------------------|------------------------|
|--(5)------(5/8)------|--7------8p(7\5)--------|
|----------------------|------------------------|
|----------------------|------------------------|
|----------------------|------------------------|
|----------------------|------------------------|

   44                              45
| |-----------------------------| |---------------------|
| |-----------------------------| |---------------------|
|6|--(5)---------------------5--|4|--(5/8)--------------|
|/|-----------------------------|/|---------------------|
|4|-----------------------------|4|---------------------|
| |-----------------------------| |---------------------|
| |-----------------------------| |---------------------|

 46                         47                  48
|--------------------------|-------------------|-------------------|
|--------------------------|-------------------|-------------------|
|--(8)----8--(8/10)----- \ | -5----------------|--(5)--------------|
|--------------------------|-------------------|-------------------|
|--------------------------|-------------------|-------------------|
|--------------------------|-------------------|-------------------|
|--------------------------|-------------------|-------------------|

 49                  50                       51
|-------------------|------------------------|------------------------|
|-------------------|------------------------|------------------------|
|-------------------|------------------------|------------------------|
|--5----------------|--(5)----5--(5/6)----6--|--5------(6p5)\3--------|
|-------------------|------------------------|------------------------|
|-------------------|------------------------|------------------------|
|-------------------|------------------------|------------------------|

   52                              53
| |-----------------------------| |---------------------|
| |-----------------------------| |---------------------|
|6|-----------------------------|4|---------------------|
|/|--(3)---------------------3--|/|--(3/6)--------------|
|4|-----------------------------|4|---------------------|
| |-----------------------------| |---------------------|
| |-----------------------------| |---------------------|

 54                      55                  56
|-----------------------|-------------------|---------------------|
|-----------------------|-------------------|---------------------|
|-----------------------|-------------------|------------------3--|
|-(6)---6--6 h 8--------|--5----------------|--(5)----------------|
|-----------------------|-------------------|---------------------|
|-----------------------|-------------------|---------------------|
|-----------------------|-------------------|---------------------|

 57                  58                       59
|-------------------|------------------------|------------------------|
|-------------------|------------------------|------------------------|
|--5----------------|--(5)----5--(5/8)----8--|--7------(8p7)\5--------|
|-------------------|------------------------|------------------------|
|-------------------|------------------------|------------------------|
|-------------------|------------------------|------------------------|
|-------------------|------------------------|------------------------|

   60                              61
| |-----------------------------| |---------------------|
| |-----------------------------| |---------------------|
|6|--(5)---------------------5--|4|--(5/8)--------------|
|/|-----------------------------|/|---------------------|
|4|-----------------------------|4|---------------------|
| |-----------------------------| |---------------------|
| |-----------------------------| |---------------------|

 62                        63                  64
|-------------------------|-------------------|-------------------|
|-------------------------|-------------------|-------------------|
|--(8)------(8/10)----- \ | -5----------------|--(5)--------------|
|-------------------------|-------------------|-------------------|
|-------------------------|-------------------|-------------------|
|-------------------------|-------------------|-------------------|
|-------------------------|-------------------|-------------------|

 65                  66                  67
|-------------------|-------------------|-------------------|
|-------------------|-------------------|-------------------|
|--(5)--------------|--(5)--------------|--(5)--------------|
|-------------------|-------------------|-------------------|
|-------------------|-------------------|-------------------|
|-------------------|-------------------|-------------------|
|-------------------|-------------------|-------------------|

 68
|-------------------||
|-------------------||
|--(5)--------------||
|-------------------||
|-------------------||
|-------------------||
|-------------------||



================================================================================
End
================================================================================


Tab summary:        Section 1 x 1
                    Section 2 x 1
                    Section 3 x 1
                    Section 4 x 1
                    Section 5 x 10

                    END


-------------------------
Corrections (15/01/2010):
-------------------------

* Corrected bars 7 and 8 of Section 4 (both guitars).

-------------------------
Corrections (07/01/2010):
-------------------------

* Completely retabbed from scratch.  This was one of my first tabs, transcribed
in 2004/2005.  I decided to redo it with 5 years more experience under my belt.
Note that the song is actually played on 7-string guitars.

  Visit MetalTabs.com for more metal tablature

bottom separator

Contact Us | Privacy Policy | Disclaimer | Legal Notice
Copyright © 2001-2014 MetalTabs.com. All Rights Reserved.