#----------------------------------PLEASE NOTE---------------------------------#
#This file is the author's own work and represents their interpretation of the #
#song. You may only use this file for private study, scholarship, or research. #
#Unless specified otherwise, this is NOT an official tab from the band members.#
#------------------------------------------------------------------------------#

  Visit MetalTabs.com for more metal tablature
  
"Radio Werewolf" by Babylon Whores
   Appears on King Fear, (c) 1999 Necropolis Records

  B tuning (2 steps down)

  Riff 1; add the occassional pinch harmonic & vibrato
  Guitar 2 plays bracketed notes
b|------------------------|------------------------
f#------------------------|------------------------
d|------------------------[12]-----[11]-----[10]---
a|------------------------|------------------------
e|7-----------------------|10-------9--------8-----
b|------8-----0--7-----0--|------0--------0--------


  Riff 2
b|------------------------|------------------------
f#------------------------|------------------------
d|------------------------|------------------------
a|------------------------|6--6--6--6--6--6--6--6--
e|5--5--5--5--5--5--5--5--|4--4--4--4--4--4--4--4--
b|3--3--3--3--3--3--3--3--|------------------------

 |------------------------|------------------------
 |------------------------|------------------------
 |------------------------|------------------------
 |7--7--7--7--7--7--7--7--|---------6-----6--6--6--
 |5--5--5--5--5--5--5--5--|7--7--7--4-----4--4--4--
 |------------------------|5--5--5-----------------


  Riff 3
b|------------------------|------------------------
f#------------------------|------------------------
d|------------------------|------------------------
a|10-10-10-10-10-10-10-10-|---9--9--9--9--9--9--9--
e|8--8--8--8--8--8--8--8--|---7--7--7--7--7--7--7--
b|------------------------|------------------------

 |------------------------|------------------------
 |------------------------|------------------------
 |------------------------|------------------------
 |------------------------|------------------------
 |2-----3-----5--6--5--3--|---2--2-----2-----2-----
 |0-----1-----3--4--3--1--|---0--0-----0-----0-----

 |------------------------|------------------------
 |------------------------|------------------------
 |------------------------|------------------------
 |10----10----10----10-9--|---9--9-----9-----9-----
 |8-----8-----8-----8--7--|---7--7-----7-----7-----
 |------------------------|------------------------

 |------------------------|------------------------
 |------------------------|------------------------
 |------------------------|------------------------
 |---------------------9--|------------------------
 |2-----3-----5--6--5--7--|------------------------
 |0-----1-----3--4--3--0--|------------------------


  Riff 1b
b|------------------------|------------------------
f#------------------------|------------------------
d|------------------------|------------------------
a|------------------------|------------------------
e|7-----------------------|10-------9--------8-----
b|---0--0--0--8--0--0--0--|---0--0-----0--0-----0--


  Riff 1c
b|------------------------|------------------------
f#------------------------|------------------------
d|------------------------|------------------------
a|9--9--9--9--------------|12-12-12-11-11-11-10-10-
e|7--7--7--7--10-10-10-10-|10-10-10-9--9--9--8--8--
b|------------8--8--8--8--|------------------------

Riff 1  x2 (one guitar)
Riff 1  x4 (both guitars)
Riff 2  x2

Riff 2  x4 ("tune on...")
Riff 3     ("and I'll say")
Riff 1  x4 ("on radio werewolf")

Riff 2  x4 ("tune on...")
Riff 3     ("and I'll say")
Riff 1  x4 ("on radio werewolf")

10 bars without guitar
Riff 1b x4 ("the sleep of monsters...")
Riff 3     ("and I'll say")
Riff 1  x4 ("on radio werewolf")
Riff 1c x8

Ends in B power chord


 -J. Cromwood, 29th May 2005
   smoermeliathotmaildotcom

  Visit MetalTabs.com for more metal tablature