top separator

Home

Forum

What's New

Submit a Tab

FAQ

Links

Contact Us

Link to Us

MetalTabs.com logo

Bands

0-9

A

B

C

D

E

F

G

H

I

J

K

L

M

N

O

P

Q

R

S

T

U

V

W

X

Y

Z

Search

What

Where
 

Vlad Tepes - "Diabolical Reaps" Guitar Tab

Plain Text Version
More Vlad Tepes Tabs

Hits: 5580
Rated: 3.50 out of 5 (6 votes)
Updated: 2005-06-01 16:53:34

 

By:

Jittery Sniper

sendpm.gif

email.gif

Important note
This tab is available online because we obtained explicit permission from Vlad Tepes or their label.


#----------------------------------PLEASE NOTE---------------------------------#
#This file is the author's own work and represents their interpretation of the #
#song. You may only use this file for private study, scholarship, or research. #
#Unless specified otherwise, this is NOT an official tab from the band members.#
#------------------------------------------------------------------------------#

  Visit MetalTabs.com for more metal tablature
  
G: Vlad Tepes - Diabolical Reaps

Updated 5:49 am Sunday, May 29 2005


Band:  Vlad Tepes
Album: March to the Black Holocaust, split with Belketre
Song:  Diabolical Reaps




Transcribed By: Jittery Sniper
Email:          buriedbytimeanddust@yahoo.com


.  - palm mute           /  - slide up to
\  - slide down to       ~  - vibrato
h  - hammer on           b  - Bend
p  - pull off            Suffixes for bend
t  - tap                 f  - full bend    h - half bend
ph - pinched harmonic    q  - quarter bend t - tap bend
*  - see comment         ^  - Hold bend    r release bend
x  - Stuccatto           ~  - vibrato bend
,  - slight palm mute    () - ghost note, sustained note
"  - tremolo note        <> - Trill

Kvlt legend:
  - Feedback/gain/kvlt - Do a volume swell and use a low end amp's gain
666 - triplets on the 6th fret


Tuning D standard



Intro
|-------------------------------------------------------------------|
|-------------------------------------------------------------------|
|-10---7--7-8----10---7b-7ph-~~~----------------------------------|
|-------------------------------------------------------------------|
|-------------------------------------------------------------------|
|-0------------------------------------------------------------------|

This riff can obviously be played other ways

Riff 1, Kvlt Riffage
|-------------------------------------------------------------------|
|-------------------------------------------------------------------|
|-------------------------------------------------------------------|
|-5--5-5/8-8\-5-5-10-10---5--5-5/8-8\-5-5-4-4-----------------------|
|-3--3-3/6-6\-3-3-8--8----3--3-3/6-6\-3-3-2-2-----------------------|
|-------------------------------------------------------------------|

Riff 2, Blackened Melodies
|----------------------------------------------------------------|
|----------------------------------------------------------------|
|-------5"-3"------------------5"-3"----------------------------|
|----5"-------666-666-5"-----5"-------6"-5"-3"-5"----------------|
|-3"----------------------3"-------------------------------------|
|----------------------------------------------------------------|

Riff 3, the double bladed pendulum riff

Guitar 1                           Guitar 2
|--------------------------------  |-------------
|--------------------------------  |--/10"---8"--
|--------------------------------  |--/7"----7"-- |
|-5-5-5-5-5-5-5-5-3-3-3-3-3-3-3-3  |--/11"---11"- |
|-3-3-3-3-3-3-3-3-1-1-1-1-1-1-1-1- |-------------_|_
|--------------------------------  |------------- |

Riff 4, True Luciferian Power Chords, Satanic Mastery
|-------------------------------
|-------------------------------
|-------------------------------
|-5-5/7-8\7-7/8-8\5-8\7-8\7-8---
|-3-3/5-6\5-5/6-6\7-6\5-6\5-6---
|-------------------------------

Riff 5 is the same as riff 4 without the slides, which are
replaced by a few random pick scrapes and kvlt grunting.


Riff 6,The slow part where the kvlt muttering takes place.
This is the trickiest part to get down, there is some real
feral feedback going on here.
|------------------------------------------
|------------------------------------------
|-----3------------------------------------
|---5---5-----------------------5---5---3-3
|-3----------hit random notes---3---3---1-1
|------------------------------------------


Riff 7, just some riff they did, apparently it is kvlt
|-------------------
|-------------------
|-------------8"-7"-
|-5"-4"-5"-7"-------
|-3"-2"-3"-5"-------
|-------------------

Listen to the song for order, it is very simple.

  Visit MetalTabs.com for more metal tablature

bottom separator

Contact Us | Privacy Policy | Disclaimer | Legal Notice
Copyright © 2001-2014 MetalTabs.com. All Rights Reserved.