top separator

Home

Forum

What's New

Submit a Tab

FAQ

Links

Contact Us

Link to Us

MuSpy.com

MetalTabs.com logo

Bands

0-9

A

B

C

D

E

F

G

H

I

J

K

L

M

N

O

P

Q

R

S

T

U

V

W

X

Y

Z

Search

What

Where
 

Sodom - "The Kids Wanna Rock (Bryan Adams cover)" Guitar Tab

Plain Text Version
More Sodom Tabs

Hits: 8381
Rated: 4.00 out of 5 (1 vote)
Updated: 2005-06-01 16:50:08

 

By:

MetalThrashingMad

sendpm.gif

email.gif

Important note
This tab is available online because we obtained explicit permission from Sodom or their label.


#----------------------------------PLEASE NOTE---------------------------------#
#This file is the author's own work and represents their interpretation of the #
#song. You may only use this file for private study, scholarship, or research. #
#Unless specified otherwise, this is NOT an official tab from the band members.#
#------------------------------------------------------------------------------#

  Visit MetalTabs.com for more metal tablature
  
THE KIDS WANNA ROCK
                    As recorded by Sodom (Bryan Adams cover)
                      (From the 1991 EP THE SAW IS THE LAW)
                      Copyright (c) Steamhammer / SPV 1991


Transcribed By Steve - MetalThrashingMad
Email: Thrasher502@hotmail.com
Version 1.0 - 05-26-2005


Gtr I (E A D G B E) - 'Guitar 1'
Gtr II (E A D G B E) - 'Guitar 2'
Gtr III (E A D G B E) - 'Solo guitar'


  Q=170
 4/4
  Gtrs I, II
                          PM|   PM|
  E E E E  Q  E E   +E  E E E E E E E   E E E E  Q  E E
|-----------------|-------------------|-----------------|
|-----------------|-------------------|-----------------|
|---9-7-----------|-------------------|---9-7-----------|
|-------9-----7---|-------------------|-------9-----7---|
|---------10----2-|-(2)-2-----2-----2-|---------10----2-|
|---------------0-|-(0)-0-0-0-0-0-0-0-|-0-------------0-|


        PM|   PM|
  +E  E E E E E E E   E E E E Q  E E
|-------------------|----------------|
|-------------------|----------------|
|-------------------|----------------|
|-------------------|---2------------|
|-(2)-2-----2-----2-|-----5-2------2-|
|-(0)-0-0-0-0-0-0-0-|-0-------3--5-0-|


  Gtrs I, II
   W                  +Q.      H         +E
|-------------------|----------------------------|
|-------------------|---------11b13-----(11)pb13-|
|-/9----------------|-(9)-----11b13-----(11)pb13-|
|-------------------|----------------------------|
|-------------------|----------------------------|
|-------------------|----------------------------|
|
| Gtrs I, II
|         PM    PM          PM
| +E  E E E E E E E    E  E E  E    H
|-------------------|----------------------------|
|-------------------|----------------------------|
|-------------------|----------------------------|
|-------------------|----------------------------|
|-(2)-2-----2-----2-|-----2----4----4------------|
|-(0)-0---0-0---0-0-|-----0-0--2----2------------|


   Q    Q    Q    Q      E  E  E  Q    E  E   E
|---------------------|-------------------------|
|---------------------|-------------------------|
|----------------12---|-------------------------|
|-12---12---12---12---|-------------------------|
|---------------------|---------------------/14-|
|---------------------|-15-13-15-15---13-15-----|
|
|         PM      PM           PM
|  E E  E E  E E  E E    E  E  E  E H
|---------------------|-------------------------|
|---------------------|-------------------------|
|---------------------|-------------------------|
|---------------------|-------------------------|
|--2-2-------2------2-|-----2-----3-3-----------|
|--0-0----0--0----0-0-|-----0--0--1-1-----------|


   +E   E  E  E  E  E  E  E    E  E     E  E  E     E  E  E
|---------------------------|----------------------------------|
|------------------------16-|-17-16----17-17-16----17-17-16----|
|------------12-------17----|----18b20-------18b20-------18b20-|
|------12-14----15-14-------|----------------------------------|
|-(14)----------------------|----------------------------------|
|---------------------------|----------------------------------|
|
|             PM       PM               PM
|   E   E  E  E  E  E  E  E    E  E     E  E  H
|---------------------------|----------------------------------|
|---------------------------|----------------------------------|
|---------------------------|----------------------------------|
|---------------------------|----------------------------------|
|---2---2--------2--------2-|-----2--------4--4----------------|
|---0---0-----0--0-----0--0-|-----0-----0--2--2----------------|


   E  E  E     E  E  Q       E    E  E  E  E  Q.   E
|------------------------------|---------------------|
|-17-17-16----17-17-16b18r=====|=====================|
|-------18b20-------16b18r==14-|-16-14-16-14-16------|
|------------------------------|---------------------|
|------------------------------|---------------------|
|------------------------------|---------------------|
|
|              PM         PM         PM
|  E  E  E     E  E  E    E  E    E  E  E  E  Q.   E
|------------------------------|---------------------|
|------------------------------|---------------------|
|------------------------------|---------------------|
|------------------------------|---------------------|
|--2--2-----------2----------2-|--2-----7S=6S=7----2-|
|--0--0--------0--0-------0--0-|--0--0--5S=4S=5----0-|


  Gtrs I, II
        PM------|     PM----|                 PM|   PM|     PM      ~
  +E  E E E E E E E   E E E E E E E E   +E  E E E E E E E   E E E E Q  E E
|-------------------|-----------------|-------------------|----------------|
|-------------------|-----------------|-------------------|----------------|
|-------------------|-----------------|-------------------|----------------|
|-------------------|-----------------|-------------------|---2----------2-|
|-(2)-------------2-|---6-7-6-7-7-7-2-|-(2)-2-----2-----2-|-----5-2----2-0-|
|-(0)-0-0-0-0-0-0-0-|-0-4-5-4-5-5-5-0-|-(0)-0-0-0-0-0-0-0-|-0-------3------|


                                    PM|   PM|     PM      ~
  +W           +H..       E   +E  E E E E E E E   E E E E Q  E E
|------------|--------------|-------------------|----------------|
|------------|--------------|-------------------|----------------|
|------------|--------------|-------------------|----------------|
|-(2)--------|-(2)----------|-------------------|---2----------4-|
|-(0)--------|-(0)--------2-|-(2)-2-----2-----2-|-----5-2----2-2-|
|------------|------------0-|-(0)-0-0-0-0-0-0-0-|-0-------3------|


  +W           +W           W          W          E E E E Q  E E
|------------|------------|----------|----------|----------------|
|------------|------------|----------|----------|----------------|
|------------|------------|----------|----------|----------------|
|-(4)--------|-(4)--------|----------|----------|---2------------|
|-(2)--------|-(2)--------|----------|----------|-----5-2------2-|
|------------|------------|----------|----------|---------3--5-0-|


  Gtr III
   W                  +Q.      H         +E
|-------------------|----------------------------|
|-------------------|---------11b13-----(11)pb13-|
|-/9----------------|-(9)-----11b13-----(11)pb13-|
|-------------------|----------------------------|
|-------------------|----------------------------|
|-------------------|----------------------------|
|
| Gtrs I, II
|         PM    PM          PM
| +E  E E E E E E E    E  E E  E    H
|-------------------|----------------------------|
|-------------------|----------------------------|
|-------------------|----------------------------|
|-------------------|----------------------------|
|-(2)-2-----2-----2-|-----2----4----4------------|
|-(0)-0---0-0---0-0-|-----0-0--2----2------------|


   E     E  E  E     E  Q       E    Q       +Q        +Q       +E     E
|---------------------------------|--------------------------------------|
|-16----17-17-16----17-21b23r=====|======================================|
|-18b20-------18b20----21b23r==14-|-14b16r==(14)b16r==(14)b16r=(14)b16---|
|---------------------------------|--------------------------------------|
|---------------------------------|--------------------------------------|
|---------------------------------|--------------------------------------|
|
|              PM            PM               PM
|  E     E  E  E     E  E    E  E    E    E   E     E   H
|---------------------------------|--------------------------------------|
|---------------------------------|--------------------------------------|
|---------------------------------|--------------------------------------|
|---------------------------------|--------------------------------------|
|--2-----2-----------2----------2-|-------2---------3---3----------------|
|--0-----0-----0-----0-------0--0-|-------0---0-----1---1----------------|


      PM------|         PM--|                 PM|   PM|     PM      ~
  E E E E E E E E   +E  E E E E E E E   +E  E E E E E E E   E E E E Q  E E
|-----------------|-------------------|-------------------|----------------|
|-----------------|-------------------|-------------------|----------------|
|-----------------|-------------------|-------------------|----------------|
|-----------------|-------------------|-------------------|---2----------2-|
|-2-------------2-|-(2)-6-7-6-7-7-7-2-|-(2)-2-----2-----2-|-----5-2----2-0-|
|-0-0-0-0-0-0-0-0-|-(0)-4-5-4-5-5-5-0-|-(0)-0-0-0-0-0-0-0-|-0-------3------|


                                    PM|   PM|     PM      ~
  +W           +H..       E   +E  E E E E E E E   E E E E Q  E E
|------------|--------------|-------------------|----------------|
|------------|--------------|-------------------|----------------|
|------------|--------------|-------------------|----------------|
|-(2)--------|-(2)----------|-------------------|---2----------4-|
|-(0)--------|-(0)--------2-|-(2)-2-----2-----2-|-----5-2----2-2-|
|------------|------------0-|-(0)-0-0-0-0-0-0-0-|-0-------3------|


  +W           +W           W          W
|------------|------------|----------|------|
|------------|------------|----------|------|
|------------|------------|----------|------|
|-(4)--------|-(4)--------|----------|------|
|-(2)--------|-(2)--------|----------|------|
|------------|------------|----------|------|


  E E E E E E E E   E E E E E E E E   E E E E E E E E
|-----------------|-----------------|-----------------|
|-----------------|-----------------|-----------------|
|-----------------|-----------------|-----------------|
|-----------------|-----------------|-5-5-5-5-5-5-5-5-|
|-5-5-5-5-5-5-5-5-|-7-7-7-7-7-7-7-7-|-3-3-3-3-3-3-3-3-|
|-3-3-3-3-3-3-3-3-|-5-5-5-5-5-5-5-5-|-----------------|


  E E E E E E E E   E E E E E E E E   E E E E E E E E
|-----------------|-----------------|-----------------|
|-----------------|-----------------|-----------------|
|-----------------|-----------------|-----------------|
|-7-7-7-7-7-7-7-7-|-7-7-7-7-7-7-7-7-|-7-7-7-7-7-7-7-7-|
|-5-5-5-5-5-5-5-5-|-5-5-5-5-5-5-5-5-|-5-5-5-5-5-5-5-5-|
|-----------------|-----------------|-----------------|


  Gtr III
   E      E  E  E     E  E  E     E    E  E     E  E  H
|-----------------------------------|-------------------------|
|--------13-13-------13-13-------13-|-13-------13-13-11b13----|
|-10pb12-------10b12-------10b12----|----10b12-------11b13----|
|-----------------------------------|-------------------------|
|-----------------------------------|-------------------------|
|-----------------------------------|-------------------------|
|
| Gtrs I, II
|               PM          PM                  PM
|  E      E  E  E     E  E  E     E    E  E     E  E  H
|-----------------------------------|-------------------------|
|-----------------------------------|-------------------------|
|-----------------------------------|-------------------------|
|-----------------------------------|-------------------------|
|--2------2-----------2-----------2-|-----2--------4--4-------|
|--0------0-----0-----0-----0-----0-|-----0-----0--2--2-------|


                                               ~~
   +E       Q.        E  Q.        E  E  E  E  Q   E  E
|-------------------------------|-----------------------|
|-(11)pb13-----------13---------|-----------------------|
|-(11)pb13-11b13--------12------|-----------------------|
|-------------------------------|-10----10-10-----------|
|-------------------------------|----12-------12--10----|
|-------------------------------|--------------------12-|
|
|                  PM       PM           PM
|   E       E    E E  E  E  E E    E  E  E  E  H
|-------------------------------|-----------------------|
|-------------------------------|-----------------------|
|-------------------------------|-----------------------|
|-------------------------------|-----------------------|
|---2-------2---------2-------2-|-----2-----3--3--------|
|---0-------0------0--0-----0-0-|-----0--0--1--1--------|


   +E   E  E  E  Q.       E    +E   E  E  E  Q.    E
|---------------------------|------------------------|
|---------------------------|------------------------|
|---------------------------|---------------12-------|
|-----------------------/14-|-(14)-14-14-14-------14-|
|---------------10----------|------------------------|
|-(12)-12-12-12-------------|------------------------|
|
|             PM      PM               PM
|   E   E  E  E  E  E E   E     E   E  E  E  H
|---------------------------|------------------------|
|---------------------------|------------------------|
|---------------------------|------------------------|
|---------------------------|------------------------|
|---2---2--------2--------2-|-------2-----4--4-------|
|---0---0-----0--0----0---0-|-------0--0--2--2-------|


   +E   E  E  E  E  E  E  E    E  Q       E  Q.    E
|---------------------------|------------------------|
|------15-14----------------|---------------------12-|
|------------16-14----------|----15b17r==13-15----12-|
|-(14)-------------17-14-13-|------------------------|
|---------------------------|-17---------------------|
|---------------------------|------------------------|
|
|             PM       PM         PM
|   E   E  E  E  E  E  E  E    E  E    E  E  Q.    E
|---------------------------|------------------------|
|---------------------------|------------------------|
|---------------------------|------------------------|
|---------------------------|------------------------|
|---2---2--------2--------2-|--2-------7S=6S=7----10-|
|---0---0-----0--0-----0--0-|--0--0----5S=4S=5-----8-|


   +E   E  E  E  E  E  E  E    E  E  E  E E E E E
|---------------------------|------------------------|
|-(12)-12-12-12-11-11-11-11-|-10-10-10-10-9-9-9-7----|
|-(12)-12-12-12-11-11-11-11-|-10-10-10-10-9-9-9-9b11-|
|---------------------------|------------------------|
|---------------------------|------------------------|
|---------------------------|------------------------|
|
|             PM       PM            PM
|  +E   E  E  E  E  E  E  E    E  E  E  E E E E E
|---------------------------|------------------------|
|---------------------------|------------------------|
|---------------------------|------------------------|
|---------------------------|------------------------|
|-(10)-10-10-10--9--9--9--9-|--8--8--8--8-7-7-7-7----|
|--(8)--8--8--8--7--7--7--7-|--6--6--6--6-5-5-5-5----|


  +E      Q.       E E E E      E E E E H
|-----------------------------|----------------|
|-(7)-------------------------|----------------|
|-(9)pb11-9b11r====7---9-9b11r|=9-7---7--------|
|--------------------9--------|-----9---9------|
|-----------------------------|----------------|
|-----------------------------|----------------|
|
|                PM    PM           PM
| +E      E    E E E E E E      E E E E E E Q
|-----------------------------|----------------|
|-----------------------------|----------------|
|-----------------------------|----------------|
|-----------------------------|----------------|
|-(7)-----2------2---2--------|-2-----2--------|
|-(5)-----0----0-0-0-0-0-0----|-0-0-0-0-0-0-0--|


   S  S  S  S  S  S  S  S  S  S  S  S  S  S  S  S
|-------------------------------------------------|
|-14-14-14-14-15-15-15-15-17-17-17-17-19-19-19-19-|
|-------------------------------------------------|
|-------------------------------------------------|
|-------------------------------------------------|
|-------------------------------------------------|
|
|  E     E     E     E     E     E     E     E
|-------------------------------------------------|
|-------------------------------------------------|
|-------------------------------------------------|
|--5-----5-----5-----5-----5-----5-----5-----5----|
|--3-----3-----3-----3-----3-----3-----3-----3----|
|-------------------------------------------------|


   S  S  S  S  S  S  S  S  E  E  E  E
|-16-16-16-16-17-17-17-17-19-19-19-19-|
|-------------------------------------|
|-------------------------------------|
|-------------------------------------|
|-------------------------------------|
|-------------------------------------|
|
|  E     E     E     E     E  E  E  E
|-------------------------------------|
|-------------------------------------|
|-------------------------------------|
|--5-----5-----5-----5-----5--5--5--5-|
|--3-----3-----3-----3-----3--3--3--3-|
|-------------------------------------|


                             ~~
   H..                +E     W
|-20pb21-------------(20)-|-19---------------|
|-------------------------|------------------|
|-------------------------|------------------|
|-------------------------|------------------|
|-------------------------|------------------|
|-------------------------|------------------|
|
|  E     E E E E E E   E     E E E E E E E E
|-------------------------|------------------|
|-------------------------|------------------|
|-------------------------|------------------|
|--5-----5-5-5-5-5-5---5--|--5-5-5-5-5-5-5---|
|--3-----3-3-3-3-3-3---3--|--3-3-3-3-3-3-3-2-|
|-------------------------|----------------0-|


                                    ~~~~~~~
   W           +W            H     +H
|-----------|-------------|---------------|
|-17--------|-(17)--------|-15----(15)----|
|-----------|-------------|---------------|
|-----------|-------------|---------------|
|-----------|-------------|---------------|
|-----------|-------------|---------------|
|
|  W            W            W
|-----------|-------------|---------------|
|-----------|-------------|---------------|
|-----------|-------------|---------------|
|-----------|-------------|---------------|
|-----------|-------------|---------------|
|-----------|-------------|---------------|


 ~~~~~~
   +W            W           +H      +H
|-------------|-----------|------------------|
|-(15)--------|-14--------|-(14)----(14)\----|
|-------------|-----------|------------------|
|-------------|-----------|------------------|
|-------------|-----------|------------------|
|-------------|-----------|------------------|
|
|   W            W            W
|-------------|-----------|------------------|
|-------------|-----------|------------------|
|-------------|-----------|------------------|
|-------------|-----------|------------------|
|-------------|-----------|------------------|
|-------------|-----------|------------------|


  Gtr I
                                    PM|   PM|     PM
  W          E E E E Q  E E   +E  E E E E E E E   E E E E Q  E E
|----------|----------------|-------------------|----------------|
|----------|----------------|-------------------|----------------|
|----------|----------------|-------------------|----------------|
|----------|---2------------|-------------------|----------------|
|----------|-----5-2------2-|-(2)-2-----2-----2-|-----7---6--5-2-|
|----------|---------3--5-0-|-(0)-0-0-0-0-0-0-0-|-0-0-5-0-4--3-0-|


        PM|   PM|                            PM|   PM|     PM
  +E  E E E E E E E   E E E E Q  E E   +E  E E E E E E E   E E E E Q  E E
|-------------------|----------------|-------------------|----------------|
|-------------------|----------------|-------------------|----------------|
|-------------------|----------------|-------------------|----------------|
|-------------------|---2------------|-------------------|----------------|
|-(2)-2-----2-----2-|-----5-2------2-|-(2)-2-----2-----2-|-----7---6--5-2-|
|-(0)-0-0-0-0-0-0-0-|-0-------3--5-0-|-(0)-0-0-0-0-0-0-0-|-0-0-5-0-4--3-0-|


                                                  Gtrs I, II
        PM|   PM|
  +E  E E E E E E E   E E E E Q  E E   W          E E E E Q  E E
|-------------------|----------------|----------|----------------|
|-------------------|----------------|----------|----------------|
|-------------------|----------------|----------|----------------|
|-------------------|---2------------|----------|----------------|
|-(2)-2-----2-----2-|-----5-2------2-|----------|--------------2-|
|-(0)-0-0-0-0-0-0-0-|-0-------3--5-0-|----------|---0-5-0-4--3-0-|


  W          E E E E Q  E E   +E  E E E E E E E   E E E E E E E E
|----------|----------------|-------------------|-----------------|
|----------|----------------|-------------------|-----------------|
|----------|----------------|-------------------|-----------------|
|----------|---2------------|-------------------|-----------------|
|----------|-----5-2------7-|-(7)-7-7-7-7-7-7-7-|-7-7-7-7-7-7-7-2-|
|----------|---------3--5-5-|-(5)-5-5-5-5-5-5-5-|-5-5-5-5-5-5-5-0-|


        PM|   PM|
  +E  E E E E E E E   E E E E Q  E E   +E  E E E E E E E   E E E E E E E E
|-------------------|----------------|-------------------|-----------------|
|-------------------|----------------|-------------------|-----------------|
|-------------------|----------------|-------------------|-----------------|
|-------------------|---2----------4-|-(4)-4-4-4-4-4-4-4-|-4-4-4-4-4-4-4-4-|
|-(2)-2-----2-----2-|-----5-2------2-|-(2)-2-2-2-2-2-2-2-|-2-2-2-2-2-2-2-2-|
|-(0)-0-0-0-0-0-0-0-|-0-------3--5---|-------------------|-----------------|


  E H..         W          E E E E E E E E   E E E E E E E E
|-------------|----------|-----------------|-----------------|
|-------------|----------|-----------------|-----------------|
|-------------|----------|-----------------|-----------------|
|-------------|----------|-4-4-4-4-4-4-4-4-|-4-4-4-4-4-4-4-4-|
|-2-----------|----------|-2-2-2-2-2-2-2-2-|-2-2-2-2-2-2-2-2-|
|-0-----------|----------|-----------------|-----------------|


  E H..         E Q.   Q  Q    E E E E E E E E   +E  E E E E E E E
|-------------|--------------|-----------------|-------------------|
|-------------|--------------|-----------------|-------------------|
|-------------|--------------|-----------------|-------------------|
|-------------|---2----3--4--|-4-4-4---4---4-4-|-(4)-4-4---4---4---|
|-2-----------|---0----1--2--|-2-2-2---2---2-2-|-(2)-2-2---2---2---|
|-0-----------|--------------|-----------------|-------------------|


  Q=75
  Wx4
|--------*|
|--------*|
|--------*|
|--------*|
|--------*|
|--------*|


Duration Legend
---------------
W - whole; H - half; Q - quarter; E - 8th; S - 16th;
T - 32nd; X - 64th; a - acciaccatura
+ - note tied to previous; . - note dotted; .. - note double dotted
Uncapitalized letters represent notes that are staccato (1/2 duration)
Irregular groupings are notated above the duration line
Duration letters will always appear directly above the note/fret number it
represents the duration for.  Duration letters with no fret number below them
represent rests.  Multi-bar rests are notated in the form Wxn, where n is the
number of bars to rest for.  Low melody durations appear below the staff

Tablature Legend
----------------
 h   - hammer-on
 p   - pull-off
 b   - bend
 pb  - pre-bend
 r   - bend release (if no number after the r, then release immediately)
 /\  - slide into or out of (from/to "nowhere")
 s   - legato slide
 S   - shift slide
<n>  - natural harmonic
[n]  - artificial harmonic
n(n) - tapped harmonic
 ~   - vibrato
 tr  - trill
 T   - tap
 TP  - trem. picking
 PM  - palm muting
\n/  - tremolo bar dip; n = amount to dip
 \n  - tremolo bar down
 n/  - tremolo bar up
/n\  - tremolo bar inverted dip
 =   - hold bend; also acts as connecting device for hammers/pulls
 <>  - volume swell (louder/softer)
 x   - on rhythm slash represents muted slash
 o   - on rhythm slash represents single note slash

Misc Legend
-----------
 |  - bar
||  - double bar
||o - repeat start
o|| - repeat end
*|  - double bar (ending)
 :  - bar (freetime)
 $  - Segno
 &  - Coda
Tempo markers - <E/E./Q/Q./H/H.> = BPM(8/16=s8/s16),
where s8 = swing 8ths, s16 = swing 16ths

  Visit MetalTabs.com for more metal tablature

bottom separator

Contact Us | Privacy Policy | Disclaimer | Legal Notice
Copyright © 2001-2014 MetalTabs.com. All Rights Reserved.