top separator

Home

Forum

FAQ

Contact Us

Link to Us

MetalTabs.com logo

Bands

0-9

A

B

C

D

E

F

G

H

I

J

K

L

M

N

O

P

Q

R

S

T

U

V

W

X

Y

Z

Origin - "Reciprocal" Guitar Tab

Plain Text Version
More Origin Tabs

Hits: 6380
Rated: 5.00 out of 5 (1 vote)
Updated: 2005-07-21 14:02:10

By:

hot spicy


#----------------------------------PLEASE NOTE---------------------------------#
#This file is the author's own work and represents their interpretation of the #
#song. You may only use this file for private study, scholarship, or research. #
#Unless specified otherwise, this is NOT an official tab from the band members.#
#------------------------------------------------------------------------------#

  Visit MetalTabs.com for more metal tablature
  
Band:  Origin
Album: Echoes Of Decimation
Song:  Reciprocal

Copyright (c) Relapse Records 2005
Version 1.1  18.06.2005


Transcribed By: Robert Nowak
Email:          robert.n74@web.de
Bands:          unchallengedhate.de
                japanischekampfhoerspiele.de

With special thanks and greetings to Stabwound and Tim (Cloaca)

.  - palm mute           /  - slide up to
\  - slide down to       ~  - vibrato
h  - hammer on           b  - Bend
p  - pull off            Suffixes for bend
t  - tap                 f  - full bend    h - half bend
ph - pinched harmonic    q  - quarter bend t - tap bend
*  - see comment         ^  - Hold bend    r release bend
x  - Stuccatto           ~  - vibrato bend
,  - slight palm mute    () - ghost note, sustained note
"  - tremolo note        <> - Trill

Drop B Tuning: B-F#-B-E-G#-C#

guitar one =  left channel
guitar two = right channel

RIFF 1 (0:00) both guitars = 4 times
       3 times           first and third time     second and fourth time
|---------------------|-------------------------|-------------------4p2p1-|
|---------6p4p3-------|-6p4p3-6p4p3-5p3p2-------|-6p4p3-6p4p3-5p3p2-------|
|---------------5p3p2-|-------------------5p3p2-|-------------------------|
|---------------------|-------------------------|-------------------------|
|-2-2-2-0-------------|-------------------------|-------------------------|
|-2-2-2-0-------------|-------------------------|-------------------------|
  . . . .
RIFF 2 (0:16) both guitars = 4 times
|-----------------------------------------------------------------||
|-----------------------------------------------------------------||
|-----------------------------------------------------------------||
|-----------------------------------------------------------------||
|--------------------------------------------------2-----------1--||
|-222233332222111122223333222266662222333322221111-2-2-2-2-4-4-1--||
                                                     . . . . .
RIFF 3 (0:31) both guitars = 1 time
|------------------------------------------------------
|------------------------------------------------------
|------------------------------------------------------
|------------------------------------------------------
|-7777888877776666777788887777111111117777888877776666-
|------------------------------------------------------

 ------------------------
 ------------10p7--------
 ----------8------8------
 --------9----------9----
 -6-7-10--------------10-
 ------------------------


 ------------------------------------------------------
 ------------------------------------------------------
 ------------------------------------------------------
 ------------------------------------------------------
 -7777888877776666777788887777111111117777888877776666-
 ------------------------------------------------------

RIFF 4 (0:38) guitar two = 3 times / guitar one = 2 times
 -----------------------------------------------
 ------------10p7-------------------10p7--------
 ----------8------8---------------8------8------
 --------9----------9-----------9----------9----
 -6-7-10--------------10-6-7-10--------------10-
 -----------------------------------------------

------------------------------------------||
 ------------10p7-----10-7-10-7-11-8-12p7-||
 ----------8------8-----------------------||
 --------9----------9---------------------||
 -6-7-10----------------------------------||
 -----------------------------------------||

RIFF 4 continue guitar one / third time
 -----------------------------------------------------------
 ---------------13p10------------------------13p10----------
 ------------11-------11------------------11-------11-------
 ---------12-------------12------------12-------------12----
 -9-10-13-------------------13-9-10-13-------------------13-
 -----------------------------------------------------------

 ---------------------------------------------------||
 ---------------13p10-------13-10-13-10-14-11-15p10-||
 ------------11-------11----------------------------||
 ---------12-------------12-------------------------||
 -9-10-13-------------------------------------------||
 ---------------------------------------------------||

RIFF 4 continue last time / both guitars
 -----------------------------------------------
 ------------10p7-------------------10p7--------
 ----------8------8---------------8------8------
 --------9----------9-----------9----------9----
 -6-7-10--------------10-6-7-10--------------10-
 -----------------------------------------------

----------------------------------------|-stop-||
 ------------10p7-----10-7-10-7-11-8-12-|------||
 ----------8------8---------------------|------||
 --------9----------9-------------------|------||
 -6-7-10--------------------------------|------||
 ---------------------------------------|------||


RIFF 5 (0:54) both guitars = 2 times
|------------------------------------------------------------------
|------------------------------------------------------------------
|-10p8p7-------10p8p7-10p8p7-------10p8p7-9p7p6-------10p8p7-------
|------------------------------------------------------------------
|--------8p6p5---------------8p6p5--------------8p6p5--------8p6p5-
|------------------------------------------------------------------


RIFF 5 continue
 --------------------------------------------------------------------
 --------------------------------------------------------------------
 -10p8p7-10p8p7-------10-9h11-------10p8p7-------10p8p7-10p8p7-------
 --------------------------------------------------------------------
 ---------------8p6p5---------6h7h9--------8p6p5---------------8p6p5-
 --------------------------------------------------------------------
RIFF 5 continue
 ------------------------------------------------
 ------------------------------------------------
 -10p8p7-9p7p6--------10p8p7-------10p8p7-10p8p7-
 ------------------------------------------------
 ---------------8p6p5--------8p6p5---------------
 ------------------------------------------------

RIFF 5 ending / only first time
|--------------------------------------------------||
|--------------------------------------------------||
|-11111111------------10101010------------99999999-||
|--------------------------------------------------||
|---------888811111111--------777710101010---------||
|--------------------------------------------------||

RIFF 5 ending / second time (1:09) guitar two
|--------------------------------------------------||
|-----------------------------------------ph-------||
|-11111111------------10101010------------9--------||
|--------------------------------------------------||
|---------888811111111--------777710101010---------||
|--------------------------------------------------||

RIFF 5 ending / second time (1:09) guitar one
|----------------------------------------------------------||
|-------------------------------------------------ph-------||
|-14141414----------------13131313----------------12-------||
|----------------------------------------------------------||
|---------1111111114141414--------1010101013131313---------||
|----------------------------------------------------------||

RIFF 6 (1:11) both guitars = 2 times
|--------------------------------------------------------------------------
|--------------------------------------------------------------------------
|-------------------------------8p6p5-------------------------------8h9h11-
|--------------------------------------------------------------------------
|-3-------3---3-------3---7p5p4-------3-------3---3-------3---6h7h9--------
|-3-2-2-2-3-2-3---2-2-3---------------3-2-2-2-3-2-3---2-2-3----------------
    . . .   .     . .                   . . .   .     . .
RIFF 6 continue
 -----------------------------------------------------
 -----------------------------------------------------
 -------------------------------8p6p5-----------------
 -----------------------------------------------------
 -3-------3---3-------3---7p5p4-------3-------3---3---
 -3-2-2-2-3-2-3---2-2-3---------------3-2-2-2-3-2-3---
    . . .   .     . .                   . . .   .
RIFF 6 ending
 ----------------------------------||
 ----------------------------------||
 ----------------------------------||
 -3333--------2222--------11111111-||
 ----------------------------------||
 -----33336666----22225555---------||

RIFF 6b (1:28) both guitars
|----------------------------------
|----------------------------------
|----------------------------------
|-3333--------2222-----------------
|-------------------------6666-----
|-----33336666----22225555----2222-

RIFF 6b ending (1:30) guitar two
|----------------------------------------------------------------||
|----------------------------------------------------------------||
|----------------------------------------------------------------||
|-3333--------2222----------------3333--------2222---------------||
|-------------------------66666666------------------------6666---||
|-----33336666----22225555------------33336666----22225555----11-||

RIFF 6b ending (1:30) guitar one
|----------------------------------------------------------------||
|----------------------------------------------------------------||
|----------------------------------------------------------------||
|-6666--------5555----------------6666--------5555---------------||
|-------------------------99999999------------------------9999---||
|-----66669999----55558888------------66669999----55558888----44-||

RIFF 7 (1:34) both guitars = 4 times
|----------------17h22p17----------------18h23p18-
|--------------19----------------------20---------
|------------19----------------------20-----------
|----------19----------------------20-------------
|-171717-20---------------181818-21---------------
|-------------------------------------------------
RIFF 7 continue
 ----------------16h21p16---------16h21p16---------16h21p16-||
 --------------18---------------18---------------18---------||
 ------------18---------------18---------------18-----------||
 ----------18---------------18---------------18-------------||
 -161616-19---------------19---------------19---------------||
 -----------------------------------------------------------||

RIFF 8 (1:45) both guitars
|---------------------------------------------------
|---------------------------------------------------
|---------------------------------------------------
|---------------------------------------------------
|-555555-1-2-1-666666-2-3-2-4-----------1-----0-----
|--------1-2-1--------2-3-2---0-1-2-1-2-1-2-1-0-1-2-
         . . .        . . .   . . . . .   . .   . .
RIFF 8 continue
 ---------------------------------------------
 ---------------------------------------------
 ---------------------------------------------
 ---------------------------------------------
 -555555-1-2-1-666666-2-3-2-5-7--9-10--8-9999-
 --------1-2-1--------2-3-2-7-9-11-12-10------
         . . .        . . . . . .  .  .
RIFF 8 continue
 ---------------------------------------------------
 ---------------------------------------------------
 ---------------------------------------------------
 ---------------------------------------------------
 -555555-1-2-1-666666-2-3-2-4-----------1-----0-----
 --------1-2-1--------2-3-2---0-1-2-1-2-1-2-1-0-1-2-
         . . .        . . .   . . . . .   . .   . .
RIFF 8 continue
 ------------------------------------------
 ------------------------------------------
 ------------------------------------------
 ------------------------------------------
 -555555-1-2-1-666666-2-3-2-5-7--9-10--9-7-
 --------1-2-1--------2-3-2-7-9-11-12-11-9-
         . . .        . . . . . .  .  .  .
RIFF 8 continue
 ---------------------------------------------------
 ---------------------------------------------------
 ---------------------------------------------------
 ---------------------------------------------------
 -555555-1-2-1-666666-2-3-2-4-----------1-----0-----
 --------1-2-1--------2-3-2---0-1-2-1-2-1-2-1-0-1-2-
         . . .        . . .   . . . . .   . .   . .
RIFF 8 continue
---------------------------------------------
 ---------------------------------------------
 ---------------------------------------------
 ---------------------------------------------
 -555555-1-2-1-666666-2-3-2-5-7--9-10--8-9999-
 --------1-2-1--------2-3-2-7-9-11-12-10------
         . . .        . . . . . .  .  .
RIFF 8 continue
 ---------------------------------------------------
 ---------------------------------------------------
 ---------------------------------------------------
 ---------------------------------------------------
 -555555-1-2-1-666666-2-3-2-4-----------1-----0-----
 --------1-2-1--------2-3-2---0-1-2-1-2-1-2-1-0-1-2-
         . . .        . . .   . . . . .   . .   . .
RIFF 8 ending
 ------------------------------------------------------------------||
 ------------------------------------------------------------------||
 ------------------------------------------------------------------||
 ------------------------------------------------------------------||
 -555555-1-2-1-666666-2-3-2-5-7--9--9--8-7-5---4---2---2---1---1---||
 --------1-2-1--------2-3-2-7-9-11-11-10-9-7---6---4---4---3---3---||
         . . .        . . . . . .  .  .  . .   .   .   .   .   .

RIFF 7 (2:13) both guitars = 4 times
|----------------17h22p17----------------18h23p18-
|--------------19----------------------20---------
|------------19----------------------20-----------
|----------19----------------------20-------------
|-171717-20---------------181818-21---------------
|-------------------------------------------------
RIFF 7 continue
 ----------------16h21p16---------16h21p16---------16h21p16-||
 --------------18---------------18---------------18---------||
 ------------18---------------18---------------18-----------||
 ----------18---------------18---------------18-------------||
 -161616-19---------------19---------------19---------------||
 -----------------------------------------------------------||

END

  Visit MetalTabs.com for more metal tablature

bottom separator

Contact Us | Privacy Policy | Disclaimer
Copyright © 2001-2014 MetalTabs.com. All Rights Reserved.