top separator

Home

Forum

What's New

Submit a Tab

FAQ

Links

Contact Us

Link to Us

MuSpy.com

MetalTabs.com logo

Bands

0-9

A

B

C

D

E

F

G

H

I

J

K

L

M

N

O

P

Q

R

S

T

U

V

W

X

Y

Z

Search

What

Where
 

Tristania - "Beyond the Veil" Guitar Tab

Plain Text Version
More Tristania Tabs

Hits: 6148
Rated: 5.00 out of 5 (3 votes)
Updated: 2005-05-26 17:00:11

 

By:

thedarkdream

sendpm.gif

email.gif

Important note
This tab is available online because we obtained explicit permission from Tristania or their label.


#----------------------------------PLEASE NOTE---------------------------------#
#This file is the author's own work and represents their interpretation of the #
#song. You may only use this file for private study, scholarship, or research. #
#Unless specified otherwise, this is NOT an official tab from the band members.#
#------------------------------------------------------------------------------#

  Visit MetalTabs.com for more metal tablature
  
Band:  Tristania
Album: Beyond The Veil
Song:  Beyond The Veil

Copyright (c)  Napalm Records, 1999
Version 1.0 - (May 26, 2005)

Transcribed By: chr (thedarkdream)
Email:          darkchr@gmail.com


00:32 - Intro
(I'm not really sure about this part though this is how it sounds to me)
(As there are two guitars, I guess the notes are played by each guitar)

e[--------------------------------|------------------------------------------]
B[-----repeat as many as needed---|------------------------------------------]
G[--------------------------------|--4-4444-4-4444-4-4444---77777-5555-444---]
D[--------------------------------|------------------------------------------]
A[-0-0000-0-0000---0-0000-0-0000--|--0-0000-0-0000-0-0000---00000-0000-000---]
E[--------------------------------|------------------------------------------]
                                                                       (all 2x)

00:48

e[----------------------these are 10s----------------------------------]
B[---------------------------------------------------------------------]
G[--7-7-7-7-7-7-7-7-1010101010101010102-2-2-2-2-2-2-2-1010109-9-9-109--]
D[--7-7-7-7-7-7-7-7-1010101010101010102-2-2-2-2-2-2-2-1010109-9-9-109--]
A[--5-5-5-5-5-5-5-5-8-8-8-8-8-8-8-8-8-0-0-0-0-0-0-0-0-8-8-8-7-7-7-8-7--]
E[---------------------------------------------------------------------]

e[----------------------these are 10s----------------------------------]
B[---------------------------------------------------------------------]
G[--7-7-7-7-7-7-7-7-1010101010101010102-2-2-2-2-2-2-2-10----9-----10---]
D[--7-7-7-7-7-7-7-7-1010101010101010102-2-2-2-2-2-2-2-10----9-----10---]
A[--5-5-5-5-5-5-5-5-8-8-8-8-8-8-8-8-8-0-0-0-0-0-0-0-0-8-----7-----8----]
E[---------------------------------------------------------------------]
                                                               (those two 2x)

repeat intro;
repeat main;

02:22

e[------------------]
B[------------------]
G[--10----9-----10--]
D[--10----9-----10--]
A[--8-----7-----8---]
E[------------------]

solo under main riff

e[-------------------------------------------------------------------------8-7-]
B[--------------------------------------------------------------------8-10-----]
G[--------10--9-------7--9-------9--10------7--9-----7-9-10-9-7--9-10----------]
D[--10--7-------10--7------10--7--------10--------10---------------------------]
A[-----------------------------------------------------------------------------]
E[-----------------------------------------------------------------------------]

e[----------------------------------------------------------------------------]
B[--10-8----------------------------------------------------------------------]
G[-------10-9-10-9-7----7----------------------------------9--7--------9--10--]
D[-------------------10---10-9-7-9=7----7-9-10-9-7--10--7--------10--7--------]
A[-----------------------------------10---------------------------------------]
E[----------------------------------------------------------------------------]

e[-------------------8-7-5-8-7-5-8-7-8-7-5-8-7-5-8-7-------------------------]
B[--------------8-10---------------------------------------------------------]
G[--------10--9--------------------------------------9--7--9--10-9--7--------]
D[--10--7-------------------------------------------------------------10--7--]
A[---------------------------------------------------------------------------]
E[---------------------------------------------------------------------------]


(here is acoustic guitar. maybe in a later update)

03:20

e[--------------------------------------------------------------------------]
B[--------------------------------------------------------------------------]
G[---------------------------------------------------7---------5---4---5----]
D[---7-------------------------------7---------------5---5-5-553---2---3----]
A[---5---5-5-875---5-8-------875---7-5---5-5-875---5------------------------]
E[---------------8---6---6-6-----8---------------8--------------------------]
 |P.M    . .             . .             . .             . . ..
 | (Gtr 2)
e[--------------------------------------------------------------------------]
B[--------------------------------------------------------------------------]
G[---7----------------------------------------------------------------------]
D[---7----------------------------------------------------------------------]
A[---5----------------------------------------------------------------------]
E[--------------------------------------------------------------------------]


e[--------------------------------------------------------------------------]
B[--------------------------------------------------------------------------]
G[---------------------------------------------------7---------5---4---5----]
D[---7-------------------------------7---------------5---5-5-553---2---3----]
A[---5---5-5-875---5-8-------875---7-5---5-5-875---5------------------------]
E[---------------8---6---6-6-----8---------------8--------------------------]
 |P.M    . .             . .             . .             . . ..
 | (Gtr 2)
e[--------------------------------------------------------------------------]
B[--------------------------------------------------------------------------]
G[---7-----------------------------------------------12--------10--9---10---]
D[---7-----------------------------------------------12--------10--9---10---]
A[---5-----------------------------------------------10--------8---7---8----]
E[--------------------------------------------------------------------------]


e[--------------------------------------------------------------------------]
B[--------------------------------------------------------------------------]
G[---------------------------------------------------7---------5---4---5----]
D[---7-------------------------------7---------------5---5-5-553---2---3----]
A[---5---5-5-875---5-8-------875---7-5---5-5-875---5------------------------]
E[---------------8---6---6-6-----8---------------8--------------------------]
 |P.M    . .             . .             . .             . . ..          (2x)
 | (Gtr 2)
e[--------------------------------------------------------------------------]
B[--------------------------------------------------------------------------]
G[---7-------------------------------7---------------12--------10--9---10---]
D[---7---------------8---------------7---------------12--------10--9---10---]
A[---5---------------8---------------5---------------10--------8---7---8----]
E[-------------------6------------------------------------------------------]

              (2x)
e[--------------------------------------------------------------------------]
B[--------------------------------------------------------------------------]
G[---------------------------------------------------7---------5---4---5----]
D[---7-------------------------------7---------------5---5-5-553---2---3----]
A[---5---5-5-875---5-8-------875---7-5---5-5-875---5------------------------]
E[---------------8---6---6-6-----8---------------8--------------------------]
  P.M    . .             . .             . .             . . ..

04:08

e[-------------------------------------------------------------------]
B[-------------------------------------------------------------------]
G[-------------------------------------------------------------------]
D[----7-----7---5-7---7-----7---5-7---7-----7---5-7---------7-5---5--]
A[--5---8-5---------5---8-5---------5---8-5---------5-7-8-5-----8----]
E[-------------------------------------------------------------------]
 | (Gtr 2)
e[-------------------------------------------------------------------]
B[-------------------------------------------------------------------]
G[--7---------------5---------------3---------------2----------------]
D[--7---------------5---------------3---------------2----------------]
A[--5---------------3---------------1---------------0----------------]
E[-------------------------------------------------------------------]

(repeats many times with minor differences... sometimes the guitar is too low
 and I cannot hear it too well...)

04:57

e[------------------------------------]
B[------------------------------------]
G[--7-7-7-7-10101010-7-7-7-7-10109-9--]
D[--7-7-7-7-10101010-7-7-7-7-10109-9--]
A[--5-5-5-5-8-8-8-8--5-5-5-5-8-8-7-7--]
E[------------------------------------]
 | (Gtr 2)                               (8x)
e[------------------------------------]
B[------------------------------------]
G[------------------------------------]
D[------7-------7--------7------------]
A[--5-------8--------5-------8---5----]
E[------------------------------------]

  Visit MetalTabs.com for more metal tablature

bottom separator

Contact Us | Privacy Policy | Disclaimer | Legal Notice
Copyright © 2001-2014 MetalTabs.com. All Rights Reserved.