top separator

Home

Forum

FAQ

Contact Us

Link to Us

MetalTabs.com logo

Bands

0-9

A

B

C

D

E

F

G

H

I

J

K

L

M

N

O

P

Q

R

S

T

U

V

W

X

Y

Z

Haggard - "Per Aspera Ad Astra" Guitar Tab

Plain Text Version
More Haggard Tabs

Hits: 3942
Rated: 4.00 out of 5 (3 votes)
Updated: 2005-05-26 16:56:29

By:


#----------------------------------PLEASE NOTE---------------------------------#
#This file is the author's own work and represents their interpretation of the #
#song. You may only use this file for private study, scholarship, or research. #
#Unless specified otherwise, this is NOT an official tab from the band members.#
#------------------------------------------------------------------------------#

  Visit MetalTabs.com for more metal tablature
  
Title: Per Aspera Ad Astra
Artist: Haggard
Tab: dead_locked

Standar Tunning

  0:17
|---------------------------------------------------------------------|
|---------------------------------------------------------------------|
|-----------4-----2---------------------------------------------------|
|-----------------------5-----4-----2-----4-----5-----0-----2-----4---|
|-2-2-2-2-2---2-2---2-2---2-2---2-2---2-2---2-2---2-2---0-0---0-0---0-|
|---------------------------------------------------------------------|

|--------------------------------------------------------------------|
|--------------------------------------------------------------------|
|------------------------------------------4-----2-------------------|
|----0-----------------5---4---------------------------5-----4-----2-|
|--0---0-0-3-----5---------------2-2-2-2-2---2-2---2-2---2-2---2-2---|
|------------3-3---3-3-----------------------------------------------|

|-------------------------------------------------------------------|
|-------------------------------------------------------------------|
|-------------------------------------------------------------------|
|-----4-----5-----0-----------2-----4-------0-----------------5---4-|
|-2-2---2-2---2-2---0-0-0-0-0---0-0---0---0---0-0-3-----5-----------|
|---------------------------------------------------3-3---3-3-------|

|---------------------------------------------------------------------|
|---------------------------------------------------------------------|
|-----------4-----2---------------------------------------------------|
|-----------------------5-----4-----2-----4-----5-----0-----2-----4---|
|-2-2-2-2-2---2-2---2-2---2-2---2-2---2-2---2-2---2-2---0-0---0-0---0-|
|---------------------------------------------------------------------|

|--------------------------------------------------------------------|
|--------------------------------------------------------------------|
|------------------------------------------4-----2-------------------|
|----0-----------------5---4---------------------------5-----4-----2-|
|--0---0-0-3-----5---------------2-2-2-2-2---2-2---2-2---2-2---2-2---|
|------------3-3---3-3-----------------------------------------------|

|---------------------------------------------------------------------|
|---------------------------------------------------------------------|
|---------------------------------------------------------------------|
|-----4-----5-----0-----------2-------4-------0-----------------5---4-|
|-2-2---2-2---2-2---0-0-0-0-0---0-0-0---0---0---0-0-3-----5-----------|
|-----------------------------------------------------3-3---3-3-------|

|---------------------------------------------------------------------|
|---------------------------------------------------------------------|
|-----------4-----2---------------------------------------------------|
|-----------------------5-----4-----2-----4-----5-----0-----2-----4---|
|-2-2-2-2-2---2-2---2-2---2-2---2-2---2-2---2-2---2-2---0-0---0-0---0-|
|---------------------------------------------------------------------|

|-------------------------------------|
|-------------------------------------|
|-------------------------------------|
|----0-----------------5-4-2-4-5-4--2-|
|--0---0-0-3-----5------------------0-|
|------------3-3---3-3----------------|

|-----------------------------------------------------|
|-----------------------------------------------------|
|-----------------------------------------------------|
|--------2----------------5-----7---------------------|X2
|--2-2---0-5-5-7--5-7-8---8-7-5-------7--7-5--3--2--|
|--0-0------3-3-5-----------------8-7-5--5-3--1--0--|
 ..PM..                           .PM.
|----------------------------------------|
|----------------------------------------|
|----------------------------------------|
|--------2----------------5--------------|
|--2-2---0-5-5-7--5-7-8---8---7--5--7--|
|--0-0------3-3-5--------------5--3--5--|
 ..PM..                           .PM.

|----------------| |-------------------------------|  |------|
|----------------| |-------------------------------|  |------|
|----------------| |-------------------------------|  |------|
|--------5-4-----| |-------------------------------|X2|------|
|--3--5--3-2--7--| |-7-7-7-7-7--7-7-7--7-5-7-7-7-|  |-3--5-|
|--1--3-------5-| |-5--5-5-5--5--55-5--5-5-5-5-5-|  |-1--3-|

|---------------------------------------------------------------------|
|---------------------------------------------------------------------|
|-----------4-----2---------------------------------------------------|
|-----------------------5-----4-----2-----4-----5-----0-----2-----4---|
|-2-2-2-2-2---2-2---2-2---2-2---2-2---2-2---2-2---2-2---0-0---0-0---0-|
|---------------------------------------------------------------------|

|--------------------------------------------------------------------|
|--------------------------------------------------------------------|
|------------------------------------------4-----2-------------------|
|----0-----------------5---4---------------------------5-----4-----2-|
|--0---0-0-3-----5---------------2-2-2-2-2---2-2---2-2---2-2---2-2---|
|------------3-3---3-3-----------------------------------------------|

|-------------------------------------------------------------------|
|-------------------------------------------------------------------|
|-------------------------------------------------------------------|
|-----4-----5-----0-----------2-----4-------0-----------------5---4-|
|-2-2---2-2---2-2---0-0-0-0-0---0-0---0---0---0-0-3-----5-----------|
|---------------------------------------------------3-3---3-3-------|

|---------------------------------------------------------------------|
|---------------------------------------------------------------------|
|-----------4-----2---------------------------------------------------|
|-----------------------5-----4-----2-----4-----5-----0-----2-----4---|
|-2-2-2-2-2---2-2---2-2---2-2---2-2---2-2---2-2---2-2---0-0---0-0---0-|
|---------------------------------------------------------------------|

|-----------------------------|
|-----------------------------|
|-----------------------------|
|----0-----------------5---4--|
|--0---0-0-3-----5------------|
|------------3-3---3-3--------|
 _______________________________________________X2_
|----------------| |-------------------------------|  |------|
|----------------| |-------------------------------|  |------|
|----------------| |-------------------------------|  |------|
|--------7-5-----| |-------------------------------|X2|------|
|--3--5--5-3--7--| |-7-7-7-7-7--7-7-7--7-5-7-7-7-|  |-3--5-|
|--1--3-------5-| |-5--5-5-5--5--55-5--5-5-5-5-5-|  |-1-3-|
 3:49
|--------------------------------------------------------------------|
|--------------------------------------------------------------------|
|--------------------------------------------------------------------|
|--------------5-----------------------5--------------------5--------|
|--7--5--7--5--3--5--2--7--7--5--7--5--3--5--2--7--5--7--5--3--5--2--|
|--5--3--5--3-----3--0--5--5--3--5--3-----3--0--5--3--5--3-----3--0--|

|---------------------------------------------------------------------|
|---------------------------------------------------------------------|
|-----------4-----2---------------------------------------------------|
|-----------------------5-----4-----2-----4-----5-----0-----2-----4---|
|-2-2-2-2-2---2-2---2-2---2-2---2-2---2-2---2-2---2-2---0-0---0-0---0-|
|---------------------------------------------------------------------|

|--------------------------------------------------------------------|
|--------------------------------------------------------------------|
|------------------------------------------4-----2-------------------|
|----0-----------------5---4---------------------------5-----4-----2-|
|--0---0-0-3-----5---------------2-2-2-2-2---2-2---2-2---2-2---2-2---|
|------------3-3---3-3-----------------------------------------------|

|-------------------------------------------------------------------|
|-------------------------------------------------------------------|
|-------------------------------------------------------------------|
|-----4-----5-----0-----------2-----4-------0-----------------5---4-|
|-2-2---2-2---2-2---0-0-0-0-0---0-0---0---0---0-0-3-----5-----------|
|---------------------------------------------------3-3---3-3-------|

|---------------------------------------------------------------------|
|---------------------------------------------------------------------|
|-----------4-----2---------------------------------------------------|
|-----------------------5-----4-----2-----4-----5-----0-----2-----4---|
|-2-2-2-2-2---2-2---2-2---2-2---2-2---2-2---2-2---2-2---0-0---0-0---0-|
|---------------------------------------------------------------------|

|-----------------------------|
|-----------------------------|
|-----------------------------|
|----0-----------------5---4--|
|--0---0-0-3-----5------------|
|------------3-3---3-3--------|

|-----------------------------------------------------|
|-----------------------------------------------------|
|-----------------------------------------------------|
|--------2----------------5-----7---------------------|X2
|--2-2---0-5-5-7--5-7-8---8-7-5-------7--7-5--3--2--|
|--0-0------3-3-5-----------------8-7-5--5-3--1--0--|
 ..PM..                           .PM.
|----------------------------------------|
|----------------------------------------|
|----------------------------------------|
|--------2----------------5--------------|
|--2-2---0-5-5-7--5-7-8---8---7--5--7--|
|--0-0------3-3-5--------------5--3--5--|
 ..PM..                           .PM.
 _______________________________________________X2_
|----------------| |-------------------------------|  |------|
|----------------| |-------------------------------|  |------|
|----------------| |-------------------------------|  |------|
|--------5-4-----| |-------------------------------|X2|------|
|--3--5--3-2--7--| |-7-7-7-7-7--7-7-7--7-5-7-7-7-|  |-3--5-|
|--1--3-------5-| |-5--5-5-5--5--55-5--5-5-5-5-5-|  |-1-3-|

  Visit MetalTabs.com for more metal tablature

bottom separator

Contact Us | Privacy Policy | Disclaimer
Copyright © 2001-2014 MetalTabs.com. All Rights Reserved.