top separator

Home

Forum

What's New

Submit a Tab

FAQ

Links

Contact Us

Link to Us

MuSpy.com

MetalTabs.com logo

Bands

0-9

A

B

C

D

E

F

G

H

I

J

K

L

M

N

O

P

Q

R

S

T

U

V

W

X

Y

Z

Search

What

Where
 

Macabre - "Werewolf Of Bedburg" Guitar Tab

Plain Text Version
More Macabre Tabs

Hits: 3897
Updated: 2005-05-26 16:42:07

 

By:

The Doctor

sendpm.gif

email.gif

Important note
This tab is available online because we obtained explicit permission from Macabre or their label.


#----------------------------------PLEASE NOTE---------------------------------#
#This file is the author's own work and represents their interpretation of the #
#song. You may only use this file for private study, scholarship, or research. #
#Unless specified otherwise, this is NOT an official tab from the band members.#
#------------------------------------------------------------------------------#

  Visit MetalTabs.com for more metal tablature
  
Artist: Macabre
Song: Werevolf of Bedbug
Album: Murder Metal
Tabbed by: Menno Roymans

Tuning: E


Riff one:

-------------------------------------------------
-------------------------------------------------
-------------------------------------------------
-------------------------------------------------
-----2-----2-----2-----2-----1-----1-----1-----1-
-0-3---0-3---0-3---0-3---0-2---0-2---0-2---0-2---
[.....................pm........................]

play 6 times (last 2 times without pm)


Riff two:

---------------------------------------------
---------------------------------------------
---------------------------------------------
---------------------------------------------
-2---2---2--2---2---2--1---1---1--1---1---1--
--33--33--3--33--33--3--22--22--2--22--22--2-

play 2 times

Then play:
6x Riff one (last 2 times without pm)
2x Riff two
4x Riff one

Riff three:

-----------------------------------------------------
-----------------------------------------------------
-----------------------------------------------------
-----------------------------------------------------
-------2------------2------------1------------1------
-033333-33333-033333-33333-022222-22222-022222-22222-

play 2 times


Riff four:

-----------------------------------------------------
-----------------------------------------------------
-----------------------------------------------------
-----------------------------------------------------
-------2------2--2--2--2---------1------1--1--1--1---
-033333-33333--33-33-33-33-022222-22222--22-22-22-22-

Then play:
2x Riff two


Riff five:

----------------------------
----------------------------
----------------------------
----------------------------
-----2-------2---2---2---2--
-0-3---3-0-3---3--33--33--3-

----------------------------
----------------------------
----------------------------
----------------------------
-----1-------1---1---1---1--
-0-2---2-0-2---2--22--22--2-

play 2 times.


Interlude:

----------------------------
----------------------------
-----6-------6---6---6---6--
---7---7---7---7--77--77--7-
----------------------------
-5-------5------------------

----------------------------
----------------------------
-----5-------5---5---5---5--
---6---6---6---6--66--66--6-
----------------------------
-4-------4------------------

----------------------------
----------------------------
-----8-------8---8---8---8--
---9---9---9---9--99--99--9-
----------------------------
-7-------7------------------

----------------------------
----------------------------
-----7-------7---7---7---7--
---8---8---8---8--88--88--8-
----------------------------
-6-------6------------------

-----------------------------------
-----------------------------------
-----10------10---10----10----10---
---11--11--11--11---1111--1111--11-
-----------------------------------
-9-------9-------------------------

------------------------------
------------------------------
-----9------9---9----9----9---
---10-10--10-10--1010-1010-10-
------------------------------
-8-------9--------------------

------------------------------------
------------------------------------
-----13-------13---13----13----13---
---14--14---14--14---1414--1414--14-
------------------------------------
-12-------12------------------------

------------------------------------
------------------------------------
-----12-------12---12----12----12---
---13--13---13--13---1313--1313--13-
------------------------------------
-11-------11------------------------

Then play:
6x Riff one (last 2 times without pm)
2x Riff two

Repeat riff one to fade.


That's it, for comments mail to mennodeman@hotmail.com

  Visit MetalTabs.com for more metal tablature

bottom separator

Contact Us | Privacy Policy | Disclaimer | Legal Notice
Copyright © 2001-2014 MetalTabs.com. All Rights Reserved.