top separator

Home

Forum

What's New

Submit a Tab

FAQ

Links

Contact Us

Link to Us

MuSpy.com

MetalTabs.com logo

Bands

0-9

A

B

C

D

E

F

G

H

I

J

K

L

M

N

O

P

Q

R

S

T

U

V

W

X

Y

Z

Search

What

Where
 

Macabre - "Dorthea's Dead Folks Home" Guitar Tab

Plain Text Version
More Macabre Tabs

Hits: 3541
Updated: 2005-05-26 16:39:40

 

By:

The Doctor

sendpm.gif

email.gif

Important note
This tab is available online because we obtained explicit permission from Macabre or their label.


#----------------------------------PLEASE NOTE---------------------------------#
#This file is the author's own work and represents their interpretation of the #
#song. You may only use this file for private study, scholarship, or research. #
#Unless specified otherwise, this is NOT an official tab from the band members.#
#------------------------------------------------------------------------------#

  Visit MetalTabs.com for more metal tablature
  
Artist: Macabre
Song: Dorthea's Dead Folks Home
Album: Murder Metal
Tabbed By: Menno Roymans

Tuning: E

Intro:

----------
----------
----------
----------
----------
-2--2--2--


Riff one:

-------------------------------------------
-------------------------------------------
-------------------------------------------
-------------------------------------------
---2-2-2-3---2-2-2-3---2-2-2-3-3-3-3-2---2-
-2---------2---------2-----------------5---

play two times.


Riff two:

-------------------------------------------
-------------------------------------------
-------------------------------------------
---2-2-2-3---2-2-2-3---2-2-2-3-3-3-3-2---2-
-2---------2---------2-----------------5---
-------------------------------------------

then play riff one again.


Riff three:

--------------------------
--------------------------
-------------------------- play 2 times
-4-xx4-5-4-2--------------
-2-xx2-3-2-0--4-xx4-5-4-2-
--------------2-xx2-3-2-0-

----------------------------------------------------
----------------------------------------------------
----------------------------------------------------
-4-xx4-5-4-2----------------------------------------
-2-xx2-3-2-0--4-xx4-5-4-2--4xx-4-5-4-2--4xx-4-5-4-2-
--------------2-xx2-3-2-0--2xx-2-3-2-0--2xx-2-3-2-0-

--------------------------
--------------------------
--------------------------
-4-xx4-5-7-5--------------
-2-xx2-3-5-3--4-xx4-5-4-2-
--------------2-xx2-3-2-0-

--------------------------
--------------------------
--------------------------
-4-xx4-5-4-2--------------
-2-xx2-3-2-0--4-xx4-5-4-2-
--------------2-xx2-3-2-0-

----------------------------------------------------
----------------------------------------------------
----------------------------------------------------
-4-xx4-5-4-2----------------------------------------
-2-xx2-3-2-0--4-xx4-5-4-2--4xx-4-5-4-2--4xx-4-5-4-2\
--------------2-xx2-3-2-0--2xx-2-3-2-0--2xx-2-3-2-0\


Re-intro:

----------------
----------------
----------------
----------------
----------------
-2--2--2--2--2--

then play:
2x Riff one
1x Riff two
1x Riff one


That's it, for comments mail to mennodeman@hotmail.com

  Visit MetalTabs.com for more metal tablature

bottom separator

Contact Us | Privacy Policy | Disclaimer | Legal Notice
Copyright © 2001-2014 MetalTabs.com. All Rights Reserved.