top separator

Home

Forum

What's New

Submit a Tab

FAQ

Links

Contact Us

Link to Us

MuSpy.com

MetalTabs.com logo

Bands

0-9

A

B

C

D

E

F

G

H

I

J

K

L

M

N

O

P

Q

R

S

T

U

V

W

X

Y

Z

Search

What

Where
 

Macabre - "McDahmers" Guitar Tab

Plain Text Version
More Macabre Tabs

Hits: 3905
Rated: 5.00 out of 5 (1 vote)
Updated: 2005-05-26 16:39:33

 

By:

The Doctor

sendpm.gif

email.gif

Important note
This tab is available online because we obtained explicit permission from Macabre or their label.


#----------------------------------PLEASE NOTE---------------------------------#
#This file is the author's own work and represents their interpretation of the #
#song. You may only use this file for private study, scholarship, or research. #
#Unless specified otherwise, this is NOT an official tab from the band members.#
#------------------------------------------------------------------------------#

  Visit MetalTabs.com for more metal tablature
  
Artist: Macabre
Song: McDahmers
Album: Dahmer
Tabbed By: Menno Roymans

Tuning: B (like a 7 string guitar)


Riff one:

---------------------------------------
-5-x4-444-555-4-444-5-x4-444-555-4-444-
-5-x4-444-555-4-444-5-x4-444-555-4-444-
-3-x2-222-333-2-222-3-x2-222-333-2-222-
---------------------------------------
---------------------------------------

play 3 times.


Riff two:

-------------
-------------
-2----5----4-
-2----5----4-
-0----3----2-
-------------


play 4 times

Then play:
2x Riff one
4x Riff two
1x Riff one


Riff three:

-----------------
----------------- play 4 times
-----------------
-----------------
-0-0-3-3-2-2-5-5-
-----------------

-----------------
----------------- play 4 times
-----------------
-0-0-3-3-2-2-5-5-
-----------------
-----------------

-----------------
----------------- play 4 times
-----------------
-----------------
-----------------
-0-0-3-3-2-2-5-5-

-----------------
----------------- play 4 times (last time go up like 00223355)
-----------------
-----------------
-0-0-3-3-2-2-5-5-
-----------------

Then play:
2x Riff one
4x Riff two
2x Riff one


That's it, for comments mail to mennodeman@hotmail.com

  Visit MetalTabs.com for more metal tablature

bottom separator

Contact Us | Privacy Policy | Disclaimer | Legal Notice
Copyright © 2001-2014 MetalTabs.com. All Rights Reserved.