top separator

Home

Forum

What's New

Submit a Tab

FAQ

Links

Contact Us

Link to Us

MuSpy.com

MetalTabs.com logo

Bands

0-9

A

B

C

D

E

F

G

H

I

J

K

L

M

N

O

P

Q

R

S

T

U

V

W

X

Y

Z

Search

What

Where
 

Macabre - "Baptized" Guitar Tab

Plain Text Version
More Macabre Tabs

Hits: 3201
Rated: 5.00 out of 5 (1 vote)
Updated: 2005-05-26 16:39:14

 

By:

The Doctor

sendpm.gif

email.gif

Important note
This tab is available online because we obtained explicit permission from Macabre or their label.


#----------------------------------PLEASE NOTE---------------------------------#
#This file is the author's own work and represents their interpretation of the #
#song. You may only use this file for private study, scholarship, or research. #
#Unless specified otherwise, this is NOT an official tab from the band members.#
#------------------------------------------------------------------------------#

  Visit MetalTabs.com for more metal tablature
  
Artist: Macabre
Song: Baptized
Album: Dahmer
Tabbed by: Menno Roymans

Tuning: E

Riff one:

-----------6-----------6-----------6-----------6-
-----6---7-------6---7-------6---7-------6---7---
---7---8-------7---8-------7---8-------7---8-----
-8-----------8-----------8-----------8-----------
-------------------------------------------------
-------------------------------------------------

play 2 times.


Riff two:

-----------8-----------8-----------8-----------8-
-----8---7-------8---7-------8---7-------8---7---
---7---6-------7---6-------7---6-------7---6-----
-6-----------6-----------6-----------6-----------
-------------------------------------------------
-------------------------------------------------

Then play:
1x Riff one
1x Riff two


Riff three:

-------------------------------------------------
-----8-----7-----6-----5-----4-----5-----6-----7-
---7-----6-----5-----4-----3-----4-----5-----6---
-6-----5-----4-----3-----2-----3-----4-----5-----
-------------------------------------------------
-------------------------------------------------

Then play:
2x Riff one
1x Riff two
1x Riff one
1x Riff two
1x Riff three
1x Riff one

Riff four:

--------------------------------------------------
-----6--------------------------------------------
---7-------7--------------------------------------
-8-------8--------8-----4-----4-----4-----4-----4-
-------9--------9-----5-----5-----5-----5-----5---
-------------10-----6-----6-----6-----6-----6-----

play four times



That's it, have fun. for comments mail to mennodeman@hotmail.com

  Visit MetalTabs.com for more metal tablature

bottom separator

Contact Us | Privacy Policy | Disclaimer | Legal Notice
Copyright © 2001-2014 MetalTabs.com. All Rights Reserved.