top separator

Home

Forum

What's New

Submit a Tab

FAQ

Links

Contact Us

Link to Us

MetalTabs.com logo

Bands

0-9

A

B

C

D

E

F

G

H

I

J

K

L

M

N

O

P

Q

R

S

T

U

V

W

X

Y

Z

Search

What

Where
 

Macabre - "Shotgun Peterson / Christopher Peterson" Guitar Tab

Plain Text Version
More Macabre Tabs

Hits: 3570
Rated: 5.00 out of 5 (1 vote)
Updated: 2005-05-26 16:39:03

 

By:

The Doctor

sendpm.gif

email.gif

Important note
This tab is available online because we obtained explicit permission from Macabre or their label.


#----------------------------------PLEASE NOTE---------------------------------#
#This file is the author's own work and represents their interpretation of the #
#song. You may only use this file for private study, scholarship, or research. #
#Unless specified otherwise, this is NOT an official tab from the band members.#
#------------------------------------------------------------------------------#

  Visit MetalTabs.com for more metal tablature
  
Artist: Macabre
Song: Shotgun Peterson
Album: Sinister Slaughter
Tabbed By: Menno Roymans

Tuning: regular E


Riff one:

------------------------|------------------------|------------------------|
------------------------|------------------------|------------------------|
------------------------|------------------------|--2----------3----------|
------------------------|--2----------3----------|--0--0-1-0-1-1--0-1-0-1-|
--2----------3----------|--0--0-1-0-1-1--0-1-0-1-|------------------------|
--0--0-1-0-1-1--0-1-0-1-|------------------------|------------------------|


------------------------|
------------------------|
--2---------------------|
--0----------3----------|
-----0-1-0-1-1--0-1-0-1-|
------------------------|

play 6 times. Last time hold low E note a bit longer.


Riff two:

just follow the harmonic scale
--------------------------------------|-------------------|
--------------------------------------|-------------------|
--------------------------------------|-------------------|
--------------------------------------|--1--1--2----------|
--------------------0--0--2--2--3--3--|-------------------|
--0--0--2--2--3--3--------------------|-------------------|


----------------------------|-----------------|
----------------------------|-----------------|
----------------------------|-----------------|
----------------------------|--1111-2---------|
--------------000022223333--|-----------------|
--000022223333--------------|-----------------|

play two times, then play:

Riff three:

--------------------------------------|-------------------|
--------------------------------------|-------------------|
--------------------------------------|-------------------|
--------------------------------------|--6--6--7----------|
--------------------5--5--7--7--8--8--|-------------------|
--5--5--7--7--8--8--------------------|-------------------|


----------------------------|-----------------|
----------------------------|-----------------|
----------------------------|-----------------|
----------------------------|--6666-7---------|
--------------555577778888--|-----------------|
--555577778888--------------|-----------------|

Then play:

1x Riff two
6x Riff one
2x Riff two
1x Riff three
1x Riff one
Solo


Riff four:
hint -> use spider technique
---------|---------|---------|---------|---------|
---------|---------|---------|---------|---------|
---------|-3-------|---------|-5-------|---------|
-2-------|-3-------|-4-------|-5-------|---7---9-|
-2-------|-1-------|-4-------|-3-------|-6-5-8-7-|
-0-------|---------|-2-------|---------|-4---6---|

play four times and end with:

Riff five:

---------|---------|------------------------|
---------|---------|------------------------|
-----3---|-----5---|------------------------|
-2---3---|-4---5---|----7-----9----11----13-|
-2---1---|-4---3---|-6--5--7--7-10-9--12-11-|
-0-------|-2-------|-4-----5----8-----10----|

play 2 times (with spider-technique)


Thats it, for comments mail to mennodeman@hotmail.com

  Visit MetalTabs.com for more metal tablature

bottom separator

Contact Us | Privacy Policy | Disclaimer | Legal Notice
Copyright © 2001-2014 MetalTabs.com. All Rights Reserved.