top separator

Home

Forum

FAQ

Contact Us

Link to Us

MetalTabs.com logo

Bands

0-9

A

B

C

D

E

F

G

H

I

J

K

L

M

N

O

P

Q

R

S

T

U

V

W

X

Y

Z

Insidious Decrepancy - "Rancid Cesspool Of Unimaginable Splendor By Ritualistic Butchery" Guitar Tab

Plain Text Version
More Insidious Decrepancy Tabs

Hits: 1574
Updated: 2005-05-26 16:38:05

By:

Yura


#----------------------------------PLEASE NOTE---------------------------------#
#This file is the author's own work and represents their interpretation of the #
#song. You may only use this file for private study, scholarship, or research. #
#Unless specified otherwise, this is NOT an official tab from the band members.#
#------------------------------------------------------------------------------#

  Visit MetalTabs.com for more metal tablature
  
--- INSIDIOUS DECREPANCY  ---
         "Rancid Cesspool Of Unimaginable Splendor By Ritualistic Butchery"
                     From album: "Decadent Orgy Of Atrocious Suffering"
                     Copyright TXDM Records 2002 
                     Transcribed by: Yura Kowalchuk
                     Contact:[yura_kowalchuk@mail.ru]
                             [yura@grindcore.net]
                    http://www.blood-scrapes.nm.ru
                    http://brutaltabs.musica.mustdie.ru

                            TABULATURE LEGEND:
                   " - tremolo             h - hammer on
                   ~ - vibrato             \ - slide down
                   p - pull off            / - slide down
                  tr - trill               ^ - pinch harmonics
                   = - sustained note      b - bend string
                p.m. - palm muting         t - tapping

TUNING: C [C, F, Bb, eb, g, c]

[Intro]
||-------------------------|--------------------------|-
||-------------------------|--------------------------|-
||-------------------------|--------------------------|-
||-------------------------|--------------------------|-
||-5-4-2-3-4-7-4-3-2-3-4-3-|-5-4-2-3-4-7-2-2-1-333333-|-
||-3-2-0-1-2-5-2-1-0-1-2-1-|-3-2-0-1-2-5-4-4-3-555555-|-
|  . . . . . . . . . . . . | . . . . . . . . . ...... |
||-------------------------|--------------------------|-
||-------------------------|--------------------------|-
||-------------------------|--------------------------|-
||-------------------------|--------------------------|-
||-5-4---------4-3---------|-5-4---------2-2-1-333333-|-
||-3-2---------2-1---------|-3-2---------4-4-3-555555-|-
   . .         . .           . .         . . . ......

-|-------------------------|-------------------------|-
-|-------------------------|-------------------------|-
-|-------------------------|-------------------------|-
-|-------------------------|---------------5---4---6-|-
-|-5-4-2-3-4-7-4-3-2-3-4-3-|---7---8---6-3---2---4---|-
-|-3-2-0-1-2-5-2-1-0-1-2-1-|-5---6---4---------------|-
 | . . . . . . . . . . . . | . . . . . . . . . . . . |
-|-------------------------|-------------------------|-
-|-------------------------|-------------------------|-
-|-------------------------|-------------------------|-
-|-------------------------|---------------5---4---6-|-
-|-5-4-2-3-4-7-4-3-2-3-4-3-|---7---8---6-3---2---4---|-
-|-3-2-0-1-2-5-2-1-0-1-2-1-|-5---6---4---------------|-
   . . . . . . . . . . . .   . . . . . . . . . . . .

-|-------------------------|--------------------------|-
-|-------------------------|--------------------------|-
-|-------------------------|--------------------------|-
-|-------------------------|--------------------------|-
-|-5-4-2-3-4-7-4-3-2-3-4-3-|-5-4-2-3-4-7-2-2-1-333333-|-
-|-3-2-0-1-2-5-2-1-0-1-2-1-|-3-2-0-1-2-5-4-4-3-555555-|-
 | . . . . . . . . . . . . | . . . . . . . . . ...... |
-|-------------------------|--------------------------|-
-|-------------------------|--------------------------|-
-|-------------------------|--------------------------|-
-|-------------------------|--------------------------|-
-|-5-4-2-3-4-7-4-3-2-3-4-3-|-5-4-2-3-4-7-2-2-1-333333-|-
-|-3-2-0-1-2-5-2-1-0-1-2-1-|-3-2-0-1-2-5-4-4-3-555555-|-
   . . . . . . . . . . . .   . . . . . . . . . ......

-|-------------------------|-------------------------|-
-|-------------------------|-------------------------|-
-|-------------------------|-------------------------|-
-|-------------------------|---------------5---4---6-|-
-|-5-4-2-3-4-7-4-3-2-3-4-3-|---7---8---6-3---2---4---|-
-|-3-2-0-1-2-5-2-1-0-1-2-1-|-5---6---4---------------|-
 | . . . . . . . . . . . . | . . . . . . . . . . . . |
-|-------------------------|-------------------------|-
-|-------------------------|-------------------------|-
-|-------------------------|-------------------------|-
-|-------------------------|---5---6---4---8---7---9-|-
-|-5-4-2-3-4-7-4-3-2-3-4-3-|-3---4---2---6---5---7---|-
-|-3-2-0-1-2-5-2-1-0-1-2-1-|-------------------------|-
   . . . . . . . . . . . .   . . . . . . . . . . . .

-|-------------------------|--------------------------|-
-|-------------------------|--------------------------|-
-|-------------------------|--------------------------|-
-|-------------------------|--------------------------|-
-|-5-4-2-3-4-7-4-3-2-3-4-3-|-5-4-2-3-4-7-2-2-1-333333-|-
-|-3-2-0-1-2-5-2-1-0-1-2-1-|-3-2-0-1-2-5-4-4-3-555555-|-
 | . . . . . . . . . . . . | . . . . . . . . . ...... |
-|-------------------------|--------------------------|-
-|-------------------------|--------------------------|-
-|-------------------------|--------------------------|-
-|-------------------------|--------------------------|-
-|-5-4-2-3-4-7-4-3-2-3-4-3-|-5-4-2-3-4-7-2-2-1-333333-|-
-|-3-2-0-1-2-5-2-1-0-1-2-1-|-3-2-0-1-2-5-4-4-3-555555-|-
   . . . . . . . . . . . .   . . . . . . . . . ......

-|-------------------------|--------------------------||
-|-------------------------|--------------------------||
-|-------------------------|--------------------------||
-|-------------------------|----------------5---4---6-||
-|-5-4-2-3-4-7-4-3-2-3-4-3-|---7---8----6-3---2---4---||
-|-3-2-0-1-2-5-2-1-0-1-2-1-|-5---6----4---------------||
 | . . . . . . . . . . . . | . . . .  . . . . . . . .  |
-|-------------------------|--------------------------||
-|-------------------------|--------------------------||
-|-------------------------|----------------7---6---8-||
-|-------------------------|---9---10---8-5---4---6---||
-|-5-4-2-3-4-7-4-3-2-3-4-3-|-7---8----6---------------||
-|-3-2-0-1-2-5-2-1-0-1-2-1-|--------------------------||
   . . . . . . . . . . . .   . . . .  . . . . . . . .

[Riff 1 (x4)]
||--------------------|-------------------||
||o-------------------|------------------o||
||--------------------|-------------------||
||-----------7--5--6--|----------7--5--8--||
||o-3--4--3-----------|-3--4--3----------o||
||--1--2--1--5--3--4--|-1--2--1--5--3--6--||
|   .  .  .           | .  .  .            |
||--------------------|-------------------||
||o-------------------|------------------o||
||--------------------|-------------------||
||-----------7--5--6--|----------7--5--8--||
||o-3--4--3-----------|-3--4--3----------o||
||--1--2--1--5--3--4--|-1--2--1--5--3--6--||
    .  .  .             .  .  .

[Riff 2]
||----------------------------------------------[x3]--||-
||o--------------------------------------------------o||-
||----------------------------------------------------||-
||----------------------------------------------------||-
||o--------------------------------------------------o||-
||--111122221111555533334444111122221111555533336666--||-
    ................................................

--------------------------------------------------||
--------------------------------------------------||
--------------------------------------------------||
--------------------------------------------------||
--------------------------------------7---5---8---||
-111122221111555533334444111122221111-5---3---6---||
 .................................... .   .   .

[Riff 3 (x4)]
||------------------------------------|--------------------------------||
||o-----------------------------------|-------------------------------o||
||------------------------------------|--------------------7-----------||
||------------------------------------|---------------6666-------------||
||o-2h3p2-----3---2---1---4---3---2---|-2h3p2-----3--------5---5-6-4--o||
||--------6-4---4---3---2---5---4---3-|-------6-4---4----------3-4-2---||
          . . . . . . . . . . . . . .         . . . . ....     . . .

               [Riff 4 (x4)]
|------------||----------------------------|---------------------------||
|------------||o---------------------------|--------------------------o||
|------------||----------------------------|---------------------------||
|------------||----------------------------|---------------------------||
|---5-6-4----||o-5-6-4-333333-5-6-4-333333-|-5-6-4-333333222222444444-o||
|---3-4-2----||--3-4-2-111111-3-4-2-111111-|-3-4-2-111111000000222222--||
    . . .        . . . ...... . . . ......   . . . ..................


|-------------------||                         ||-------------------|
|-------------------||                         ||-------------------|
|-------------------||                         ||-------------------|
|-------------------||......[RIFF 4 (x4)]......||-------------------|
|-5-6-4----5-6-4----||                         ||-5-6-4----5-6-4----|
|-3-4-2----3-4-2----||                         ||-3-4-2----3-4-2----|
  . . .    . . .                                  . . .    . . .

[Riff 5 (x4)]
||-------------------------------------|------------------------------------||
||o------------------------------------|-----------------------------------o||
||-------------------------------------|------------------------------------||
||-------------------6-----5-----------|-----------------------6-----7-6~~--||
||o-3-4-3-4-33-4-3-4---5-----4---^-----|-33-4-3-4-33-4-3-4---5-----6-------o||
||--1-2-1-2-11-2-1-2-----4-----4-3~~~--|-11-2-1-2-11-2-1-2-4-----5----------||
|   . . . . .. . . . . . . . . .       | .. . . . .. . . . . . . . . .       |
||-------------------------------------|------------------------------------||
||o------------------------------------|-------------------------------^---o||
||-------------------8-----7-----------|-----------------------8-----9-8~~--||
||---------------------7-----6---^-----|---------------------7-----8--------||
||o-3-4-3-4-33-4-3-4-----6-----6-5~~~--|-33-4-3-4-33-4-3-4-6-----7---------o||
||--1-2-1-2-11-2-1-2-------------------|-11-2-1-2-11-2-1-2------------------||
    . . . . .. . . . . . . . . .         .. . . . .. . . . . . . . . .

[Riff 6 (x4)]
||--------------------------------|-----------------------------------||
||o-------------------------------|----------------------------------o||
||--------------------------------|-----------------------------------||
||--6-----------5-----------------|-------------------3---------------||
||o---5-----------4---------2h3p2-|---4---3---7---6-1-----5---3---5--o||
||------4-5-3-4-----3-4-2-3-------|-2---1---5---4-------3---1---3-----||
    . . . . . . . . . . . .         . . . . . . . . . . . . . . . .

[Riff 7a (x4)]
||---------------------------||
||o-------------------------o||
||---------------------------||
||--------------3------------||
||o-4--3--7--6--1--5--3--5--o||
||--2--1--5--4-----3--1--3---||
    .  .  .  .  .  .  .  .

[Riff 7b]
||-------------------------------[x3]-||------------------------------||
||o----------------------------------o||------------------------------||
||------------------------------------||------------------------------||
||------------------3333--------------||------------------3-----------||
||o-44443333777766661111555533335555-o||-4444333377776666-1--5--3--5--||
||--2222111155554444----333311113333--||-2222111155554444----3--1--3--||
    ................................     ................ .  .  .  .

[RIFF 3 (x4)]

              [Riff 8 (x2)]
 ------------||--------------------------|--------------------------|-
 ------------||o-------------------------|--------------------------|-
 ------------||--------------------------|--------------------------|-
 ------------||--------------------------|--------------------------|-
 ---5-6-4----||o-5-4-2-3-4-7-4-3-2-3-4-3-|-5-4-2-3-4-7-2-2-1-333333-|-
 ---3-4-2----||--3-2-0-1-2-5-2-1-0-1-2-1-|-3-2-0-1-2-5-4-4-3-555555-|-
    . . .    |   . . . . . . . . . . . . | . . . . . . . . . ...... |
 ------------||--------------------------|--------------------------|-
 ------------||o-------------------------|--------------------------|-
 ------------||--------------------------|--------------------------|-
 ------------||--------------------------|--------------------------|-
 ---5-6-4----||o-5-4-2-3-4-7-4-3-2-3-4-3-|-5-4-2-3-4-7-2-2-1-333333-|-
 ---3-4-2----||--3-2-0-1-2-5-2-1-0-1-2-1-|-3-2-0-1-2-5-4-4-3-555555-|-
                 . . . . . . . . . . . .   . . . . . . . . . ......

-|-------------------------|-------------------------|-
-|-------------------------|-------------------------|-
-|-------------------------|-------------------------|-
-|-------------------------|---------------5---4---6-|-
-|-5-4-2-3-4-7-4-3-2-3-4-3-|---7---8---6-3---2---4---|-
-|-3-2-0-1-2-5-2-1-0-1-2-1-|-5---6---4---------------|-
 | . . . . . . . . . . . . | . . . . . . . . . . . . |
-|-------------------------|-------------------------|-
-|-------------------------|-------------------------|-
-|-------------------------|-------------------------|-
-|-------------------------|---------------5---4---6-|-
-|-5-4-2-3-4-7-4-3-2-3-4-3-|---7---8---6-3---2---4---|-
-|-3-2-0-1-2-5-2-1-0-1-2-1-|-5---6---4---------------|-
   . . . . . . . . . . . .   . . . . . . . . . . . .

-|-------------------------|--------------------------|-
-|-------------------------|--------------------------|-
-|-------------------------|--------------------------|-
-|-------------------------|--------------------------|-
-|-5-4-2-3-4-7-4-3-2-3-4-3-|-5-4-2-3-4-7-2-2-1-333333-|-
-|-3-2-0-1-2-5-2-1-0-1-2-1-|-3-2-0-1-2-5-4-4-3-555555-|-
 | . . . . . . . . . . . . | . . . . . . . . . ...... |
-|-------------------------|--------------------------|-
-|-------------------------|--------------------------|-
-|-------------------------|--------------------------|-
-|-------------------------|--------------------------|-
-|-5-4-2-3-4-7-4-3-2-3-4-3-|-5-4-2-3-4-7-2-2-1-333333-|-
-|-3-2-0-1-2-5-2-1-0-1-2-1-|-3-2-0-1-2-5-4-4-3-555555-|-
   . . . . . . . . . . . .   . . . . . . . . . ......

[Ending 1]
-|-------------------------|--------------------------||
-|-------------------------|-------------------------o||
-|-------------------------|--------------------------||
-|-------------------------|---------------5---4---6--||
-|-5-4-2-3-4-7-4-3-2-3-4-3-|---7---8---6-3---2---4---o||
-|-3-2-0-1-2-5-2-1-0-1-2-1-|-5---6---4----------------||
 | . . . . . . . . . . . . | . . . . . . . . . . . .   |
-|-------------------------|--------------------------||
-|-------------------------|-------------------------o||
-|-------------------------|--------------------------||
-|-------------------------|---5---6---4---8---7---9--||
-|-5-4-2-3-4-7-4-3-2-3-4-3-|-3---4---2---6---5---7----||
-|-3-2-0-1-2-5-2-1-0-1-2-1-|--------------------------||
   . . . . . . . . . . . .   . . . . . . . . . . . .

[Ending 2]
-|-------------------------|--------------------------||
-|-------------------------|--------------------------||
-|-------------------------|--------------------------||
-|-------------------------|----------------5---4---6-||
-|-5-4-2-3-4-7-4-3-2-3-4-3-|---7---8----6-3---2---4---||
-|-3-2-0-1-2-5-2-1-0-1-2-1-|-5---6----4---------------||
 | . . . . . . . . . . . . | . . . .  . . . . . . . .  |
-|-------------------------|--------------------------||
-|-------------------------|--------------------------||
-|-------------------------|----------------7---6---8-||
-|-------------------------|---9---10---8-5---4---6---||
-|-5-4-2-3-4-7-4-3-2-3-4-3-|-7---8----6---------------||
-|-3-2-0-1-2-5-2-1-0-1-2-1-|--------------------------||
   . . . . . . . . . . . .   . . . .  . . . . . . . .

END OF SONG

  Visit MetalTabs.com for more metal tablature

bottom separator

Contact Us | Privacy Policy | Disclaimer
Copyright © 2001-2014 MetalTabs.com. All Rights Reserved.