top separator

Home

Forum

FAQ

Contact Us

Link to Us

MetalTabs.com logo

Bands

0-9

A

B

C

D

E

F

G

H

I

J

K

L

M

N

O

P

Q

R

S

T

U

V

W

X

Y

Z

Insidious Decrepancy - "Maniacal Contempt Spawned From Agonizing Depravity" Guitar Tab

Plain Text Version
More Insidious Decrepancy Tabs

Hits: 2021
Updated: 2005-05-26 16:37:09

By:

Yura


#----------------------------------PLEASE NOTE---------------------------------#
#This file is the author's own work and represents their interpretation of the #
#song. You may only use this file for private study, scholarship, or research. #
#Unless specified otherwise, this is NOT an official tab from the band members.#
#------------------------------------------------------------------------------#

  Visit MetalTabs.com for more metal tablature
  
--- INSIDIOUS DECREPANCY  ---
             "Maniacal Contempt Spawned From Agonizing Depravity"
                     From album: "Decadent Orgy Of Atrocious Suffering"
                     Copyright TXDM Records 2002 
                     Transcribed by: Yura Kowalchuk
                     Contact:[yura_kowalchuk@mail.ru]
                             [yura@grindcore.net]
                    http://www.blood-scrapes.nm.ru
                    http://brutaltabs.musica.mustdie.ru

                            TABULATURE LEGEND:
                   " - tremolo             h - hammer on
                   ~ - vibrato             \ - slide down
                   p - pull off            / - slide down
                  tr - trill               ^ - pinch harmonics
                   = - sustained note      b - bend string
                p.m. - palm muting         t - tapping

TUNING: C [C, F, Bb, eb, g, c]

[Riff 1]
||---------------------------|-----------------------------------|-
||---------------------------|-----------------------------------|-
||---------------------------|-----------------------------------|-
||-------5==-----------------|-------5==-------------------------|-
||-3-6-5-3==-111222000111-4--|-3-6-5-3==-------3-----------3-----|-
||-1-4-3-3==-111222000111-4--|-1-4-3-3==-0-1-4---4-3-0-1-4---4-3-|-
|  . . . .   ............    | . . .     . . . . . . . . . . . . |
||---------------------------|-----------------------------------|-
||---------------------------|-----------------------------------|-
||---------------------------|-----------------------------------|-
||-------5==-----------------|-------5==-------------------------|-
||-3-6-5-3==-----------------|-3-6-5-3==-------3-----------3-----|-
||-1-4-3-3==-----------------|-1-4-3-3==-0-1-4---4-3-0-1-4---4-3-|-
   . . .                       . . .     . . . . . . . . . . . .

-|--------------------------|-------------------------------------||
-|--------------------------|-------------------------------------||
-|--------------------------|-------------------------------------||
-|-------5==----------------|----------777888-----555666----------||
-|-3-6-5-3==-1112220001114--|-5557776665556668-444333444666555444-||
-|-1-4-3-3==-1112220001114--|-333555444------6-222------444333222-||
 | . . .     ............   | ...................................  |
-|--------------------------|-------------------------------------||
-|--------------------------|-------------------------------------||
-|--------------------------|-------------------------------------||
-|-------5==----------------|----------777888-----555666----------||
-|-3-6-5-3==-1112220001114--|-5557776665556668-444333444666555444-||
-|-1-4-3-3==-1112220001114--|-333555444------6-222------444333222-||
   . . .     .............    ...................................

[RIFF 1 (x2)] /both guitars/

[Riff 2 (x4)]
||-----------------------------|----------------------------------------||
||o----------------------------|---------------------------------------o||
||-----------------------------|----------------------------------------||
||---------7-8-------5-6-------|--------7-8-------5-6-------------------||
||o-5-77-6-5-6-8-444-3-4-6-5-4-|-5-77-6-5-6-8-444-3-4-5h6p5-4h5p4-3h4p3o||
||--3-55-4-----6-222-----4-3-2-|-3-55-4-----6-222-----------------------||
|   . .. . . . . ... . . . . . | . .. . . . . ... . .                    |
||-----------------------------|----------------------------------------||
||o----------------------------|---------------------------------------o||
||-----------------------------|----------------------------------------||
||---------7-8-------5-6-------|--------7-8-------5-6-------------------||
||o-5-77-6-5-6-8-444-3-4-6-5-4-|-5-77-6-5-6-8-444-3-4-6-----5-----4----o||
||--3-55-4-----6-222-----4-3-2-|-3-55-4-----6-222-----4-----3-----2-----||
    . .. . . . . ... . . . . .   . .. . . . . ... . .

[Riff 3 (x2)]
||------------------------------|----------------------------------|-
||o-----------------------------|----------------------------------|-
||------------------------------|----------------------------------|-
||------------------------------|----------------------------------|-
||o-------3-----------3-----6-5-|-6666----222233334444333355554444-|-
||--0-1-4---4-3-0-1-4---4-3-4-3-|-----5555000011112222111133332222-|-
    . . . . . . . . . . . . . .   ................................

-|-----------------------------|-----------------------------------||
-|-----------------------------|----------------------------------o||
-|-----------------------------|-----------------------------------||
-|-----------------------------|-------------33334444222255554444--||
-|-------3-----------3-----6-5-|-------------44445555333366665555-o||
-|-0-1-4---4-3-0-1-4---4-3-4-3-|-333355554444----------------------||
   . . . . . . . . . . . . . .   ................................

[Riff 4 (x2)]
||--------------------------------------------|-
||o-------------------------------------------|-
||--------------------------------------------|-
||------------------222222-3--111111555555-4--|-
||o-555555444444-3--333333-4--222222666666-5--|-
||--333333555555-4----------------------------|-
    ............    ......    ............

-|--------------------------------------------||
-|-------------------------------------------o||
-|--------------------------------------------||
-|-----------------333333-4--222222666666-5---||
-|-555555555555-4--333333-4--222222666666-5--o||
-|-333333555555-4-----------------------------||
   ............    ......    ............

[RIFF 3 (x2)] [RIFF 4 (x2)]

[Riff 5a (x2)]
||---------------------------|--------------------------|-
||o--------------------------|--------------------------|-
||---------------------------|--------------------------|-
||---------------------------|--------3-222222222-------|-
||o----5---3-----6---2-------|-66-5-3---000000000-6-7-6-|-
||--55---5---4-3---5---3-2-1-|-44-3-1-1-----------4-5-4-|-
    .. . . . . . . . . . . .   .. . .   ......... . . .

--------------------------|---------------------------||
--------------------------|--------------------------o||
--------------------------|---------------------------||
-111111111111-------------|--------3-222222222--------||
-111111111111222222222222-|-66-5-3---000000000-6-7-6-o||
-------------222222222222-|-44-3-1-1-----------4-5-4--||
 ........................   .. . .   ......... . . .

[Outro]
|--------------------------|--------------------------|
|--------------------------|--------------------------|
|--------------------------|--------------------------|
|------7-8---5-----7---4---|------6-7---4-----6---3---|
|-66-5-----5---6-5---5---5-|-55-4-----4---5-4---4---4-|
|--------------------------|--------------------------|
  .. . . . . . . . . . . .   .. . . . . . . . . . . .

[Riff 5b (x2)]
||---------------------------|--------------------------|-
||o--------------------------|--------------------------|-
||---------------------------|--------------------------|-
||---------3-222222222-------|-111111111111-------------|-
||o-66-5-3---000000000-6-7-6-|-111111111111222222222222-|-
||--44-3-1-1-----------4-5-4-|-------------222222222222-|-
    .. . .   ......... . . .   ........................

-|--------------------------|-[ending 1]----------------||
-|--------------------------|--------------------------o||
-|--------------------------|---------------------------||
-|--------3-222222222-------|---------------------------||
-|-66-5-3---000000000-6-7-6-|----5---3-----6---2-------o||
-|-44-3-1-1-----------4-5-4-|-55---5---4-3---5---3-2-1--||
   .. . .   ......... . . .   .. . . . . . . . . . . .

[ENDING 2 = OUTRO (x2)]

[Riff 6 (x4)]
||---------------------------|---------------------------||
||o--------------------------|--------------------------o||
||---------------------------|---------------------------||
||-------7-8---5-----7---4---|------6-7---4-----6---3----||
||o-66-5-7-8-5-5-6-5-7-5-4-5-|-55-4-6-7-4-4-5-4-6-4-3-4-o||
||--66-5-----5---6-5---6---5-|-55-4-----4---5-4---4---4--||
    .. . . . . . . . . . . .   .. . . . . . . . . . . .

[Riff 7 (x4)]
||------------------------|--------------------------------------|-
||o-----------------------|--------------------------------------|-
||------------------------|--------------------------------------|-
||------------------------|--------------------------------------|-
||o---------------9~------|-222222333333444444333333555555444444-|-
||--33-2-5-4~~--------8~--|-000000111111222222111111333333222222-|-
|   .. . .                | .................................... |
||------------------------|--------------------------------------|-
||o-----------------------|--------------------------------------|-
||------------------------|--------------------------------------|-
||------------------------|--------------------------------------|-
||o---------------9~------|-222222333333444444333333555555444444-|-
||--33-2-5-1~~--------8~--|-000000111111222222111111333333222222-|-
    .. . .                  ....................................

-|-----------------------|---------------------------||
-|-----------------------|--------------------------o||
-|-----------------------|---------------------------||
-|-----------------------|---------------------------||
-|---------------9~------|----5---3-----6---2-------o||
-|-33-2-5-4~~--------8~--|-55---5---4-3---5---3-2-1--||
 | .. . .                | .. . . . . . . . . . . .   |
-|-----------------------|---------------------------||
-|-----------------------|--------------------------o||
-|-----------------------|---------------------------||
-|-----------------------|---------------------------||
-|---------------9~------|----5---3-----6---2-------o||
-|-33-2-5-1~~--------8~--|-55---5---4-3---5---3-2-1--||
   .. . .                  .. . . . . . . . . . . .

[RIFF 7 (first bar only!!!)]

END OF SONG

  Visit MetalTabs.com for more metal tablature

bottom separator

Contact Us | Privacy Policy | Disclaimer
Copyright © 2001-2014 MetalTabs.com. All Rights Reserved.