#----------------------------------PLEASE NOTE---------------------------------#
#This file is the author's own work and represents their interpretation of the #
#song. You may only use this file for private study, scholarship, or research. #
#Unless specified otherwise, this is NOT an official tab from the band members.#
#------------------------------------------------------------------------------#

  Visit MetalTabs.com for more metal tablature
  
Band: Beef Conspiracy
Album: Hung, Drawn and Quarter Poundered
Song: Spunky Beefcake
Tuning: C G C F A D
Record Label: Grindethic

------------------
------------------
------------------
------------------
-----3-6-3--------
-0-3-------4-1-4--X4
 trem............

------------------
------------------
------------------
------------------
-----3-6-3--------
-0-3-------4-1-4--X2
 trem............
played faster

------------------
------------------
------------------
------------------
-----3-6-3--------
-0-3-------4-1-4--X2
 trem............

-------------
-------------
---------3*--
-------------
-0-1-000-----
-0-1-000-----X8
pm   ...
* = pinch harmonic


------------------
------------------
------------------
------------------
-----3-6-3--------
-0-3-------4-1-4--X4
 trem............

------------------
------------------
------------------
------------------
-----3-6-3--------
-0-3-------4-1-4--X2
 trem............
played faster

------------------
------------------
------------------
------------------
-----3-6-3--------
-0-3-------4-1-4--X2
 trem............

-------
-------
-------
---1---
---1---
---1---
let ring

--------------------------------------------
--------------------------------------------
--------------------------------------------
--------------------------------------------
----5h8p5---4---1-4-----5h8p5---4---1h4p1---
-00-------0---0-----000-------0---0---------
 pm       .   .     ...       .   .
------------------------------------------
------------------------------------------
------------------------------------------
------------------------------------------
----5h8p5---4---1-4-----5h8p5---4---------
-00-------0---0-----000-------0---54321---X3
 ..       .   .     ...       .   .....
h = hammer on  p = pull off

---------------------
---------------------
---------------------
----7-6----7-6-3-6---
----5-4----5-4-1-4---
-00-----00-----------X4
 pm     ..

--------------------------------------------
--------------------------------------------
--------------------------------------------
--------------------------------------------
----5h8p5---4---1-4-----5h8p5---4---1h4p1---
-00-------0---0-----000-------0---0---------
 pm       .   .     ...       .   .
------------------------------------------
------------------------------------------
------------------------------------------
------------------------------------------
----5h8p5---4---1-4-----5h8p5---4---------
-00-------0---0-----000-------0---54321---X3
 ..       .   .     ...       .   .....
h = hammer on  p = pull off

---------------------
---------------------
---------------------
----7-6----7-6-3-6---
----5-4----5-4-1-4---
-00-----00-----------repeats until:
 pm     ..

01:40 bass fill

------------------
------------------
------------------
------------------
-----3-6-3--------
-0-3-------4-1-4--X4
 trem............
 first time palm mute

-------------
-------------
---------3*--
-------------
-0-1-000-----
-0-1-000-----X8
pm   ...
* = pinch harmonic

end of song
any corrections or anythin mail to
septic_flesh241@hotmail.com

  Visit MetalTabs.com for more metal tablature