top separator

Home

Forum

What's New

Submit a Tab

FAQ

Links

Contact Us

Link to Us

MetalTabs.com logo

Bands

0-9

A

B

C

D

E

F

G

H

I

J

K

L

M

N

O

P

Q

R

S

T

U

V

W

X

Y

Z

Search

What

Where
 

Torgeist - "Sweet Death" Guitar Tab

Plain Text Version
More Torgeist Tabs

Hits: 3215
Rated: 4.80 out of 5 (5 votes)
Updated: 2005-05-26 16:31:43

 

By:

Jittery Sniper

sendpm.gif

email.gif

Important note
We did our best to reach Torgeist and ask for their permission to publish this tab. Unfortunately they did not respond to our requests or we could not find a way to contact them. This tab is available online until Torgeist tells us to take it down.


#----------------------------------PLEASE NOTE---------------------------------#
#This file is the author's own work and represents their interpretation of the #
#song. You may only use this file for private study, scholarship, or research. #
#Unless specified otherwise, this is NOT an official tab from the band members.#
#------------------------------------------------------------------------------#

  Visit MetalTabs.com for more metal tablature
  
Band:  Torgeist
Album: Time of Sabbath
Song:  Sweet Death

Copyright (c)  (Self Release)
Version 1.0

Transcribed By: Jittery Sniper, guitarist for Midnight Empire
Email:          buriedbytimeanddust@yahoo.com


.  - palm mute           /  - slide up to
\  - slide down to       ~  - vibrato
h  - hammer on           b  - Bend
p  - pull off            Suffixes for bend
t  - tap                 f  - full bend    h - half bend
ph - pinched harmonic    q  - quarter bend t - tap bend
*  - see comment         ^  - Hold bend    r release bend
x  - Stuccatto           ~  - vibrato bend
,  - slight palm mute    () - ghost note, sustained note
"  - tremolo note        <> - Trill

Tuning D standard

Intro, use hideous amounts of gain
|-------------------------------------|
|-------------------------------------|
|-------------------------------------|
|--5---5/8----4-----------------------|
|--3---3/6----2-----------------------|
|-------------------------------------|

Riff A, Main riff
|-------------------------------------------------------------------|
|-------------------------------------------------------------------|
|-------------------------------------------------------------------|
|--5--8-7---4--5--8-7---4-------------------------------------------|
|--3--6-5---2--3--6-5---2---------etc..-----------------------------|
|-------------------------------------------------------------------|

Riff B, Sweet Death!! this is the chorus
|-------------------------------------------------------------------|
|-------------------------------------------------------------------|
|-------------------------------------------------------------------|
|----------------------5--------------------------------------------|
|--7--8--7---8\7/8\7---5--------------------------------------------|
|--5--6--5---6\5/6\5---3--------------------------------------------|


Riff C Bridge

|-------------------------------------------------------------------|
|-------------------------------------------------------------------|
|-------------------------------------------------------------------|
|-------------------------------------------------------------------|
|-9"--10"--6"-------------------------------------------------------|
|-------------------------------------------------------------------|

|-------------------------------------------------------------------|
|-------------------------------------------------------------------|
|-------------------------------------------------------------------|
|-------------------------------------------------------------------|
|-3------------------sustain out, mutter some kvlt things-----------|
|-1-----------------------------------------------------------------|

Have fun with this Les Legions Noires classic.

  Visit MetalTabs.com for more metal tablature

bottom separator

Contact Us | Privacy Policy | Disclaimer | Legal Notice
Copyright © 2001-2014 MetalTabs.com. All Rights Reserved.