#----------------------------------PLEASE NOTE---------------------------------#
#This file is the author's own work and represents their interpretation of the #
#song. You may only use this file for private study, scholarship, or research. #
#Unless specified otherwise, this is NOT an official tab from the band members.#
#------------------------------------------------------------------------------#

  Visit MetalTabs.com for more metal tablature
  
--- NECROTIC DISGORGEMENT  ---
                          "Vaginally Sopdomized"
                     From album: "Suffocated In Shrinkwrap"
                     Copyright Comatose Music 2004 
                     Transcribed by: Yura Kowalchuk
                     Contact:[yura_kowalchuk@mail.ru]
                             [yura@grindcore.net]
                    http://www.blood-scrapes.nm.ru
                    http://brutaltabs.musica.mustdie.ru

                            TABULATURE LEGEND:
                   " - tremolo             h - hammer on
                   ~ - vibrato             \ - slide down
                   p - pull off            / - slide down
                  tr - trill               ^ - pinch harmonics
                   = - sustained note      b - bend string
                p.m. - palm muting         t - tapping




TUNING: C [C, F, Bb, eb, g, c]

               [Riff 1a (x3)]
 -------------||----------------------------------------------------------|-
 -------------||o---------------------------------------------------------|-
 -------------||--4---------------------------4-------------------4-------|-
 -6666--------||--3---------------------------3-----------------5---5-2---|-
 ------6-4-5--||o-2-----------------2---------2---------------2---------3-|-
 ------4-2-3--||----111111111-0-3-4---4-3-1-3---111111111-0-1-------------|-
       . . .  |               . . . . . . . .             . . . . . . . . |
 -------------||----------------------------------------------------------|-
 -------------||o---------------------------------------------------------|-
 -4444--------||--4---------------------------4-------------------4-------|-
 -------------||--3---------------------------3-----------------5---5-2---|-
 ------6-4-5--||o-2-----------------2---------2---------------2---------3-|-
 ------4-2-3--||----111111111-0-3-4---4-3-1-3---111111111-0-1-------------|-
       . . .                  . . . . . . . .             . . . . . . . .

-|------------------------------------------------------||
-|-----------------------------------------------------o||
-|-4---------------------------4-----------4444---------||
-|-3---------------------------3------------------------||
-|-2-----------------3-----2---2----------------6-4-5--o||
-|---111111111-0-3-4---4-3---3---111111111------4-2-3---||
 |             . . . . . . . .                  . . .    |
-|------------------------------------------------------||
-|-----------------------------------------------------o||
-|-4---------------------------4-----------4444---------||
-|-3---------------------------3------------------------||
-|-2-----------------3-----2---2----------------6-4-5--o||
-|---111111111-0-3-4---4-3---3---111111111------4-2-3---||
               . . . . . . . .                  . . .

[Riff 2 (x2)] /both gutiars/
||----------------------------------|----------------------------------
||o---------------------------------|----------------------------------
||----------------------------------|----------------------------------
||----------------------------------|----------------------------------
||o-6-5-3-5-3-2-3-5-6-5-3-5-3-2-3-5-|-6-5-3-5-3-2-3-5-6-5-3-5-3-----2--
||--4-3-1-3-1-0-1-3-4-3-1-3-1-0-1-3-|-4-3-1-3-1-0-1-3-4-3-1-3-3-4-3-2--
    . . . . . . . . . . . . . . . .   . . . . . . . . . . . .   . .

                                  [ending 1]
---------------------------------|-----------------------------------||
---------------------------------|----------------------------------o||
---------------------------------|-----------------------------------||
---------------------------------|-----------------------------------||
-6-5-3-5-3-2-3-5-6-5-3-5-3-2-3-5-|-6-5-3-5-3-2-3-5-6-5-3-5-3-2-4----o||
-4-3-1-3-1-0-1-3-4-3-1-3-1-0-1-3-|-4-3-1-3-1-0-1-3-4-3-1-3-1-0-2-----||
 . . . . . . . . . . . . . . . .   . . . . . . . . . . . . . .

 [ending 2]
 --------------------------------||
 --------------------------------||
 --------------------------------||
 --------------------------------||
 -6-5-3-5-3-2-3-5-4-5-3-5-3-2-4--||
 -4-3-1-3-1-0-1-3-4-3-1-3-1-0-4--||
  . . . . . . . . . . . . . .

[Riff 3]
||---------------------------------|-------------------------------|-
||---------------------------------|-------------------------------|-
||-------------------------3-------|-----------------4444---3333---|-
||-----------------2---------5-2---|-------------------------------|-
||-6-5-3-5-3-2-3-5---4-1---------4-|-6-5-3-5-3-2-3-5------6------5-|-
||-4-3-1-3-1-0-1-3-------3---------|-4-3-1-3-1-0-1-3------4------3-|-
   . . . . . . . . . . . . . . . .   . . . . . . . .      .      .

-|---------------------------------|-------------------------------||
-|---------------------------------|-------------------------------||
-|-------------------------3-------|-----------------4444----------||
-|-----------------2---------5-2---|-------------------------------||
-|-6-5-3-5-3-2-3-5---4-1---------4-|-6-5-3-5-3-2-3-5------6-4-5----||
-|-4-3-1-3-1-0-1-3-------3---------|-4-3-1-3-1-0-1-3------4-2-3----||
   . . . . . . . . . . . . . . . .   . . . . . . . .      . . .

[RIFF 1a (x2)] [RIFF 2] [RIFF 3]

[Riff 4 (x2)]
||------------------------------------|-----------------------------------|-
||o-----------------------------------|-----------------------------------|-
||------------------------------------|-----------------------------------|-
||------------------------------------|-----------------------------------|-
||o-22-2-2-2=======----2-2-2-33-3-3-3-|-22-2-2-2=======----2-2-2-33-3-^---|-
||--11-1-1-1=======-44-1-1-1-22-2-2-2-|-11-1-1-1=======-44-1-1-1-22-2-3~--|-
    .. . .          .. .   . .. . . .   .. . .          .. .   . .. .

-----------------------------------|-----------------
-----------------------------------|-----------------
-----------------------------------|-----------------
-----------------------------------|-----------------
-22-2-2-2=======----2-2-2-33-3-3-3-|-22-2-2-2=======-
-11-1-1-1=======-44-1-1-1-22-2-2-2-|-11-1-1-1=======-
 .. . .          .. .   . .. . . .

-------------------------------------------------------------||
------------------------------------------------------------o||
-------------------------------------------------------------||
-t13p12t13p12t12p11t12p11------------------------------------||
-------------------------t13p12t13p12t14p13t14p13-----------o||
--------------------------------------------------13~--\\\---||
 \_________/ \__________/\__________/\__________/
 pick tapping...................................

[Outro]
||---------------------------------------------------------|-
||---------------------------------------------------------|-
||-4---------------------------4-------------------4-------|-
||-3---------------------------3-----------------5---5-2---|-
||-2-----------------2---------2---------------2---------3-|-
||---111111111-0-3-4---4-3-1-3---111111111-0-1-------------|-
|              . . . . . . . .             . . . . . . . . |
||---------------------------------------------------------|-
||---------------------------------------------------------|-
||-4---------------------------4-------------------4-------|-
||-3---------------------------3-----------------5---5-2---|-
||-2---------------------------2---------------2---------3-|-
||-----------------------------------------0-1-------------|-
                                           . . . . . . . .

-|-----------------------------------------------------||
-|-----------------------------------------------------||
-|-4---------------------------4-----------4444--------||
-|-3---------------------------3-----------------------||
-|-2-----------------3-----2---2----------------6-4-5--||
-|---111111111-0-3-4---4-3---3---111111111------4-2-3--||
 |             . . . . . . . .                  . . .   |
-|-----------------------------------------------------||
-|-----------------------------------------------------||
-|-4---------------------------4-----------4444--------||
-|-3---------------------------3-----------------------||
-|-2---------------------------2----------------6-4-5--||
-|----------------------------------------------4-2-3--||
                                                . . .
          [Riff 1b (x2)]
--------||----------------------------------------------------------|-
--------||o---------------------------------------------------------|-
--------||--4---------------------------4-------------------4-------|-
--------||--3---------------------------3-----------------5---5-2---|-
 -------||o-2-----------------2---------2---------------2---------3-|-
 -------||----111111111-0-3-4---4-3-1-3---111111111-0-1-------------|-

-|-------------------------------------------------------||
-|------------------------------------------------------o||
-|-4---------------------------4-----------4444--3333----||
-|-3---------------------------3-------------------------||
-|-2-----------------3-----2---2----------------------5-o||
-|---111111111-0-3-4---4-3---3---111111111------------3--||
               . . . . . . . .

[RIFF 3]

END OF SONG

  Visit MetalTabs.com for more metal tablature