top separator

Home

Forum

What's New

Submit a Tab

FAQ

Links

Contact Us

Link to Us

MetalTabs.com logo

Bands

0-9

A

B

C

D

E

F

G

H

I

J

K

L

M

N

O

P

Q

R

S

T

U

V

W

X

Y

Z

Search

What

Where
 

Necrotic Disgorgement - "Orgasm of the Paraplegic" Guitar Tab

Plain Text Version
More Necrotic Disgorgement Tabs

Hits: 3761
Updated: 2005-05-21 06:45:53

 

By:

Yura

sendpm.gif

email.gif

Important note
This tab is available online because we obtained explicit permission from Necrotic Disgorgement or their label.


#----------------------------------PLEASE NOTE---------------------------------#
#This file is the author's own work and represents their interpretation of the #
#song. You may only use this file for private study, scholarship, or research. #
#Unless specified otherwise, this is NOT an official tab from the band members.#
#------------------------------------------------------------------------------#

  Visit MetalTabs.com for more metal tablature
  
--- NECROTIC DISGORGEMENT  ---
                        "Orgasm Through Paraplegic"
                     From album: "Suffocated In Shrinkwrap"
                     Copyright Comatose Music 2004 
                     Transcribed by: Yura Kowalchuk
                     Contact:[yura_kowalchuk@mail.ru]
                             [yura@grindcore.net]
                    http://www.blood-scrapes.nm.ru
                    http://brutaltabs.musica.mustdie.ru

                            TABULATURE LEGEND:
                   " - tremolo             h - hammer on
                   ~ - vibrato             \ - slide down
                   p - pull off            / - slide down
                  tr - trill               ^ - pinch harmonics
                   = - sustained note      b - bend string
                p.m. - palm muting         t - tapping




TUNING: C [C, F, Bb, eb, g, c]

            [Riff 1a (x2)] /both guitars/
 ---------||-------------------------------|---------------------------||
 ---------||o------------------------------|--------------------------o||
 ---------||-------------------------------|---------------------------||
 ---------||--666633335555222244441111-----|---------------------------||
 -3-4-2-3-||o--------------------------3-4-|-9999666688885555-3-4-2-3-o||
 -1-2-0-1-||---------------------------1-2-|------------------1-2-0-1--||
  . . . .                              . .                    . . . .

[Riff 1b (x2)] /both guitars/
||-------------------------------|---------------------------||
||o------------------------------|--------------------------o||
||-------------------------------|---------------------------||
||--666633335555222244441111-----|---------------------------||
||o--------------------------3-4-|-9999666688885555-3-4-2-3-o||
||---------------------------1-2-|------------------1-2-0-1--||
|                            . . |                  . . . .   |
||-------------------------------|---------------------------||
||o------------------------------|--------------------------o||
||-------------------------------|---------------------------||
||--999966668888555577774444-----|-7777444466663333----------||
||o--------------------------3-4-|------------------3-4-2-3-o||
||---------------------------1-2-|------------------1-2-0-1--||
                             . .                    . . . .

[Outro]
|-----------------|------------------|
|-----------------|---------------^--|
|-----------------|---------------3~-|
|-----------------|------------------|
|-3-4-2-3-3-4-----|-3-4-2-3-3-4-2----|
|-1-2-0-1-1-2-----|-1-2-0-1-1-2-0----|
| . . . . . .     | . . . . . . .
|-----------------|------------------|
|-----------------|------------------|
|-----------------|---------------3~-|
|-----------------|------------------|
|-3-4-----3-4-2-3-|-3-4-2-3-3-4-2----|
|-1-2-----1-2-0-1-|-1-2-0-1-1-2-0----|
  . .     . . . .   . . . . . . .

[Riff 2 (x4)]
||--------------------------------|--------------------------------||
||o-------------------------------|-------------------------------o||
||--------------------------------|--------------------------------||
||--------------------------------|--------------------------------||
||o-0--0--------------------------|-0--0--------------------------o||
||--1--1--1-1-1-1-1-1-1-1-1-1-1-1-|-1--1--4-4-4-4-4-4-4-4-4-4-4-4--||
|   .  .  . . . . . . . . . . . . | .  .  . . . . . . . . . . . .   |
||--------------------------------|--------------------------------||
||o-------------------------------|-------------------------------o||
||--------------------------------|--------------------------------||
||--------------------------------|--------------------------------||
||o-0--0--3-3-3-3-3-3-3-3-3-3-3-3-|-0--0--2-2-2-2-2-2-2-2-2-2-2-2-o||
||--1--1--------------------------|-1--1---------------------------||
    .  .  . . . . . . . . . . . .   .  .  . . . . . . . . . . . .

[Outro 2] /both guitars/
|-----------------------------------|
|-----------------------------------|
|-----------------------------------|
|-4h5-4---4-------------5-7-8-7-----|
|-------6---6-5-3-5-6-9---------6-9-|
|-----------------------------------|
      . . . . . .  . . . . . . . .

[RIFF 2 (x4)] [OUTRO 2]

[Riff 3]                                                             x8
||------------------------------|------------------------------------||-
||o-----------------------------|-----------------------------------o||-
||------------------------------|------------------------------------||-
||--3h6p3-2h5p2-----------------|-----------------4h5-4---4----------||-
||o-------------4-3-2-----------|-4h7p4-3h6p3-7-6-------6---6-5-3-5-o||-
||--------------2-1-0-111555444-|-------------5-4--------------------||-
                . . . .........               . .     . . . . . . .

|-----------------|
|-----------------|
|-----------------|
|-----5-7-8-7-----|
|-6-9---------6-9-|
|-----------------|
  . . . . . . . .

[Riff 4 (x4)]
||------------------|---------------------------------|-
||o-----------------|---------------------------------|-
||--7---------------|---------------------------------|-
||--7-----4---------|---------------------------------|-
||o-5-6-5-2-6-5-2-3-|-2-3-5-2-6-5-2-3-2-3-5-2-6-5-2-3-|-
||----4-3-2-4-3-0-1-|-0-1-3-0-4-3-0-1-0-1-3-0-4-3-0-1-|-
      . .   . . . .   . . . . . . . . . . . . . . . .

-----------------|------------------------------------||
-----------------|-----------------------------------o||
-7---------------|------------------------------------||
-7-----4---------|--------------------------------3---||
-5-6-5-2-6-5-2-3-|-2-3-5-2-6-5-2-3-2--6--5--2--3--1--o||
---4-3-2-4-3-0-1-|-0-1-3-0-4-3-0-1-0--4--3--0--1------||
   . .   . . . .   . . . . . . . . .  .  .  .  .  .

[Riff 5 (x2)]
||-------------------------------------------------------------|-
||o------------------------------------------------------------|-
||-------------------------------------------------------------|-
||---------------------------------------------------------^---|-
||o-3-3-3-3-3-3-3-3-3-3-3-3----------3-3-3-3-3-3-3-3-7-6-4-1~--|-
||--1-1-1-1-1-1-1-1-1-1-1-1-55854474-1-1-1-1-1-1-1-1-5-4-2-----|-
    . . . . . . . . . . . . ........   . . . . . . . . . . .

--------------------------------------------------
--------------------------------------------------
--------------------------------------------------
--------------------------------------------------
-3-3-3-3-3-3-3-3-3-3-3-3----------3-3-3-3-3-3-3-3-
-1-1-1-1-1-1-1-1-1-1-1-1-55854474-1-1-1-1-1-1-1-1-
 . . . . . . . . . . . . ........ . . . . . . . .

[ending 1]
----------------------------------||
-------------6666----------------o||
---------4444----44443333---------||
-33336666-------------------------||
------------------------22221111-o||
----------------------------------||

[Ending 2]
----------------------------------|------------------------------||
-------------6666-----------------|-------------6666-------------||
---------4444----44443333---------|---------4444-----------------||
-33336666-------------------------|-33336666---------------------||
-------------------------22221111-|------------------3--4--2--3--||
----------------------------------|------------------1--2--0--1--||
                                  |                  .  .  .  .   |
----------------------------------|------------------------------||
-------------9999-----------------|-------------9999-------------||
---------7777----77776666---------|---------7777-----------------||
-66669999-------------------------|-66669999---------------------||
-------------------------55554444-|------------------3--4--2--3--||
----------------------------------|------------------1--2--0--1--||
                                                     .  .  .  .

[RIFF 5 + ending 1] [RIFF 5 + ending 2] [edning 2] [OUTRO]


||------.........................................-------------||
||------.........................................-------------||
||------.........................................-------------||
||------... [RIFF 1a] [RIFF 1b] [RIFF 3 (x4)] ...-----5-7-8-7-||
||-3-4--.........................................-6-9---------||
||-1-2--.........................................-------------||
   . .                                            . . . . . .

END OF SONG

  Visit MetalTabs.com for more metal tablature

bottom separator

Contact Us | Privacy Policy | Disclaimer | Legal Notice
Copyright © 2001-2014 MetalTabs.com. All Rights Reserved.