#----------------------------------PLEASE NOTE---------------------------------#
#This file is the author's own work and represents their interpretation of the #
#song. You may only use this file for private study, scholarship, or research. #
#Unless specified otherwise, this is NOT an official tab from the band members.#
#------------------------------------------------------------------------------#

  Visit MetalTabs.com for more metal tablature
  
Band: Beef Conspiracy
Album: Hung Drawn and Quarter Poundered
Song: Rover Does the Splits
Tuning: C G C F A
Record Label: Grindethic

----------------------
----------------------
-----------------76---
----------------8-----
-0--0-5-6-7-6-5-------X4


------------------------~6-
---------------------------
---------------------------
---------------------------
-544644544644544644-#5#4---X2
# = slap
~ = pull off

--------------------------
--------------------------
----------------------76--
--------------------8-----
-5/1-0--0-5-6-7-6-5-------X1

Tab is 100% correct
And all the Credit goes to Jamboree McBigfun

  Visit MetalTabs.com for more metal tablature