top separator

Home

Forum

FAQ

Contact Us

Link to Us

MetalTabs.com logo

Bands

0-9

A

B

C

D

E

F

G

H

I

J

K

L

M

N

O

P

Q

R

S

T

U

V

W

X

Y

Z

Exodus - "Metal Command" Guitar Tab

Plain Text Version
More Exodus Tabs

Hits: 4699
Rated: 4.33 out of 5 (3 votes)
Updated: 2005-05-21 06:21:17

By:


#----------------------------------PLEASE NOTE---------------------------------#
#This file is the author's own work and represents their interpretation of the #
#song. You may only use this file for private study, scholarship, or research. #
#Unless specified otherwise, this is NOT an official tab from the band members.#
#------------------------------------------------------------------------------#

  Visit MetalTabs.com for more metal tablature
  
Artist: Exodus
Album: Bonded By Blood
Song: Metal Command

Copyright (c) Relativity Records,Inc 1985 & 1989
Version 1.0 - Friday, May 13, 2005

Transcribed by: Jose R. Ramirez
Email: donnene84@sbcglobal.net

This is the first song I ever transcribe so I hope everyone likes.

Standard Tuning: E A D G B E

Riff #1
|------------------------------------------------------------------------|
|------------------------------------------------------------------------|
|------------------------------------------------------------------------|
|------------------------------------------------------------------------|
|------------------------------------------------------------------------|
|--55555555555555555555555555555555555555555555555555555555555555555555--|


Riff #2A Repeat 2x (Guitar 2 continues playing Riff #1)
|---------------------------------------|
|---------------------------------------|
|---------------------------------------|
|----------7-5-7-5-----------7-5--------|
|--7-5-7-7-5-3-5-3-5-7-5-7-7-5-3-5-5-5--|
|--5-3-5-5---------3-5-3-5-5-----3-3-3--|


Riff #2B Repeat 2x (Both guitars play)
|---------------------------------------------|
|---------------------------------------------|
|---------------------------------------------|
|-------------7-5-7-5--------------7-5--------|
|--7----5-7-7-5-3-5-3-5-7----5-7-7-5-3-5-5-5--|
|--5555-3-5-5---------3-5555-3-5-5-----3-3-3--|


Riff #3A Repeat 3x
|------------------------------------------------------|
|------------------------------------------------------|
|------------------------------------------------------|
|------------------------------------------------------|
|----------------------8-8----5-5----8-7----------8-7--|
|--5555555555555555555-6-6666-3-3333-6-5555555555-6-5--|


Riff #3B Play once
|-------------------------------------|
|-------------------------------------|
|-------------------------------------|
|-------------------------------------|
|----------------------8-8----5-5-----|
|--5555555555555555555-6-6666-3-3333--|


Riff #4A Play once
|-------------------------------------------------------------|
|-------------------------------------------------------------|
|-------------------------------------------------------------|
|---------------5-------------------------7-------------------|
|--2------------333333333333-5------------555555555555-8-7-5--|
|--000000000000--------------333333333333--------------6-5-3--|
Riff #4B Play once
|------------------------------------------------------------------------|
|------------------------------------------------------------------------|
|------------------------------------------------------------------------|
|--------------5-------------------------5-7-5---7-5---7-5---7-5-5-7-5---|
|-2------------333333333333-5------------3-5-3-7-5-3-7-5-3-7-5-3-3-5-3-5-|
|-000000000000--------------333333333333-------5-----5-----5-----------3-|


Riff #2B 2x

Riff #3A 3x

Riff #3B

Riff #4A

Riff #4B

Riff #2B 4x

Riff #4A

Riff #4B

Riff #1

Riff #2A 2x (Guitar 2 continues playing Riff #1)

Riff #2B 2x (Both guitars play)

Riff #3A 3x

Riff #3B

Riff #4A

Riff #4B


Riff #5 Ending
|-----------------------------------------|
|-----------------------------------------|
|-----------------------------------------|
|------5-7--------------------------------|
|--7-5-3-55555555555-5-5-5-5---5---7-9--|
|--5-3-------------------------------5-7--|

  Visit MetalTabs.com for more metal tablature

bottom separator

Contact Us | Privacy Policy | Disclaimer
Copyright © 2001-2014 MetalTabs.com. All Rights Reserved.