top separator

Home

Forum

FAQ

Contact Us

Link to Us

MetalTabs.com logo

Bands

0-9

A

B

C

D

E

F

G

H

I

J

K

L

M

N

O

P

Q

R

S

T

U

V

W

X

Y

Z

Cradle of Filth - "Gilded Cunt" Guitar Tab

Plain Text Version
More Cradle of Filth Tabs

Hits: 16217
Rated: 4.52 out of 5 (25 votes)
Updated: 2005-05-08 08:45:35

By:


#----------------------------------PLEASE NOTE---------------------------------#
#This file is the author's own work and represents their interpretation of the #
#song. You may only use this file for private study, scholarship, or research. #
#Unless specified otherwise, this is NOT an official tab from the band members.#
#------------------------------------------------------------------------------#

  Visit MetalTabs.com for more metal tablature
  
Band:  Cradle of Filth
Album: Nymphetamine
Song:  Gilded Cunt

Copyright   Roadrunner-2004
Version 1.0 - 05/06/2005

Transcribed By: Patrick, from Brazil
Email:          patrickmortis@hotmail.com


.  - palm mute           /  - slide up to
\  - slide down to       ~  - vibrato
h  - hammer on           b  - Bend
p  - pull off            Suffixes for bend
t  - tap                 f  - full bend    h - half bend
ph - pinched harmonic    q  - quarter bend t - tap bend
*  - see comment         ^  - Hold bend    r release bend
x  - Stuccatto           ~  - vibrato bend
,  - slight palm mute    () - ghost note, sustained note
"  - tremolo note        tr - Trill
LR - let ring

Tunning: dAFCGD

        Song Structure:

Riff1  x4
Riff2  x4
Riff1  x2
Riff2  x2 *w/ Fill1 on the 2nd time
Riff3  x2 *on the 2nd time speed picking on notes
Riff4  x1  between the two "*" with "start" and "end"
Riff5A x1
Riff5B x1
Riff5A x1
Riff5C x1
Riff1  x2
Riff6A x4
Riff2  x2*w/ Fill1 on the 2nd time
Riff3  x2 *on the 2nd time speed picking on notes
Riff4  x1  between the two "*" with "start" and "end"
Riff5A x1
Riff5B x1
Riff5A x1
Riff5C x1
Riff1  x2
Riff6A x4
Riff6B x2
Finish x1


  Riff1:
  d|------------------------------------------------------|
  A|------------------------------------------------------|
  F|------------------------------------------------------|
  C|------------------------------------------------------|
  G|-3-3--44444444-3-3--4444-6--3-3--44444444-3-3--6666-4-|
  D|-1-1--22222222-1-1--2222-4--1-1--22222222-1-1--4444-2-|
      LR ........   LR .... LR   LR ........   LR .... LR

  Riff2:
  |--------------------------------------------------------------|
  |--------------------------------------------------------------|
  |----------------------------------*---------------------------|
  |----------------------------------3-3--3-4-4--4-3-3--3-4-4--4-|
  |---------4444---------------------1-1--1-2-2--2-1-1--1-2-2--2-|
  |-33333333----333344446666-6-3-0-3-----------------------------|
                             . . . .
  Fill1:
  |--------------------------|
  |--------------------------|
  |--------------------------|
  |-3-3--3-4-4--4-3-3--3-4-6-|
  |-1-1--1-2-2--2-1-1--1-2-4-|
  |--------------------------|


  Riff3:   *see song structure
   Guitar1:
  |---------------------------------------------------------------------|
  |-start---------------------------------------------------------------|
  |-*-------------------12----------12----------------------14-12-14-12-|
  |-12--14-15-12--14-15----15-14-15----15-14-15-12-15-14-15-------------|
  |---------------------------------------------------------------------|
  |---------------------------------------------------------------------|
  |Guitar2:
  |---------------------------------------------------------------------|
  |---------------------------------------------------------------------|
  |-start---------------------------------------------------------------|
  |-*-------------------------------------------------------------------|
  |-5---7--8--5---7--8--------------8---7-------------------8-----7-----|
  |---------------------6-----------------------5--5--------------------|
 cont.
  |----------------------------------------------------|
  |-------------end------------------------------------|
  |---------------*-----12------12-----------12--------|
  |-12--14-15-12--14-15------------15-14--15----15-14--|
  |-------------------------15-------------------------|
  |----------------------------------------------------|
  |
  |----------------------------------------------------|
  |----------------------------------------------------|
  |-------------end------------------------------------|
  |---------------*-----5-------5------------5---------|
  |-5---7--8--5---7--8-------------8--7---8-----8--7---|
  |-------------------------8--------------------------|

  Riff4:
  Guitar1:                       1.                 2.
  |------------------------------|------------------|------|
  |------------------------------|------------------|------|
  |o-----------------------------|-----------------o|------|
  |o-44444444-3333-44444444-3333-|-----------------o|------|
  |--22222222-1111-22222222-1111-|-6p0-5p0-2p0---5--|-6--5-|
  |------------------------------|-------------3----|-5--4-|
  |Guitar2:
  |------------------------------|------------------|------|
  |------------------------------|------------------|------|
  |o-----------------------------|-----------------o|------|
  |o-44444444-3333-44444444-3333-|-----------------o|------|
  |--22222222-1111-22222222-1111-|-6----------------|-6--5-|
  |------------------------------|-5----------------|-5--4-|

  Riff5A:*Pay attention on palm mutes
  |---------------------------------------------|
  |---------------------------------------------|
  |---------------------------------------------|
  |---------------------------------------------|
  |-4-444-4-5-4-444-4-5-4-444-4-5-8\7\5/7\5\4/5-|
  |-2-222-2-3-2-222-2-3-2-222-2-3-6\5\3/5\3\2/3-|
      ...       ...       ...

  Riff5B:
  |---------------------------------------------------------|
  |---------------------------------------------------------|
  |---------------------------------------------------------|
  |---------------------------------------------------------|
  |-444-444-444-5-444-444-444-5-444-444-444-5---------------|
  |-222-222-222-3-222-222-222-3-222-222-222-3-6-5-3-5-3-5-6-|
                                              . . . . . . .

  Riff5C:
  |-----------------------------------------------------------|
  |-----------------------------------------------------------|
  |-----------------------------------------------------------|
  |-----------------------------------------------------------|
  |-444-444-444-5-444-444-444-5-444-444-444-5---------------3-|
  |-222-222-222-3-222-222-222-3-222-222-222-3-6-5-3-5-3-5-6---|
    ... ... ...   ... ... ...   ... ... ...

  Riff6A:
  |---------------------|
  |---------------------|
  |---------------------|
  |---------------------|
  |-3/6\5-5\4-4/5\4-4-3-|
  |-1/4\3-3\2-2/3\2-2-1-|
    D     D   D     D D <=Downstroke

  Riff6B:
  |-------------------------------|
  |-------------------------------|
  |-------------------------------|
  |-------------------------------|
  |-------------------------------|
  |-11144433333332222222332222111-|
    .............................

  Finish:
  C|-2-|
  G|-2-|
  D|-0-|

  Visit MetalTabs.com for more metal tablature

bottom separator

Contact Us | Privacy Policy | Disclaimer
Copyright © 2001-2014 MetalTabs.com. All Rights Reserved.