top separator

Home

Forum

What's New

Submit a Tab

FAQ

Links

Contact Us

Link to Us

MuSpy.com

MetalTabs.com logo

Bands

0-9

A

B

C

D

E

F

G

H

I

J

K

L

M

N

O

P

Q

R

S

T

U

V

W

X

Y

Z

Search

What

Where
 

Mourning Beloveth - "Elemental Nausea" Bass Tab

Plain Text Version
More Mourning Beloveth Tabs

Hits: 2693
Rated: 5.00 out of 5 (4 votes)
Updated: 2009-03-21 03:03:34

 

By:

Paddy

sendpm.gif

email.gif

Important note
This tab is available online because we obtained explicit permission from Mourning Beloveth or their label.


#----------------------------------PLEASE NOTE---------------------------------#
#This file is the author's own work and represents their interpretation of the #
#song. You may only use this file for private study, scholarship, or research. #
#Unless specified otherwise, this is NOT an official tab from the band members.#
#------------------------------------------------------------------------------#

  Visit MetalTabs.com for more metal tablature
  
================================================================================
                       M O U R N I N G   B E L O V E T H

                                       -

                        E L E M E N T A L   N A U S E A
================================================================================


                               A MURDEROUS CIRCUS
                          (c) Sentinel Records - 2005
                        http://www.mourningbeloveth.com/


                              Tune Down 1 & 1/2 Steps
                                    C# F# B E

                                 Tempo =  75 BPM
                              Time Signature = 12/8



                          -----------------------------
                                 Transcribed by

                                 PADDY MCMULLAN
                           stinkypoohpants@yahoo.co.uk

                                   Version 1.0
                             -----------------------

                             Tablature Symbols Used:


 *         -  Staccato Note
 (/)       -  Legato Slide (Blank space indicates length of slide)
 \         -  Slide Down to/Down From (Blank space indicates length of slide)
 /         -  Slide Up To/Up From (Blank space indicates length of slide)
 ( )       -  Ghost Note/Tied Note/Implied Note



================================================================================
Rest for 22 bars
================================================================================

================================================================================
Riff 1: Play 4 times
================================================================================


||-----------------------------------|-----------------------------------|
||----------------*------------------|-----------------------------------|
||--0----0--0---0-0--0----0--3----2--|--0----0--0---0-0--0----0----3--2--|
||-----------------------------------|-----------------------------------|

|----------------------------------|------------------------------------| |
|----------------------------------|------------------------------------|*|
|--0----0--------------------------|------------------------------------|*|
|----------3----3--1----1--3----3--|--1----1--1---1-1--1----1--1--3--3--| |



================================================================================
Rest for 20 bars
================================================================================

================================================================================
Riff 2.1: (Play 3 times, replacing last bar with supplement) [Tempo = 100 BPM]
================================================================================


| |--------------------------------------------------|
|8|--------------------------------------------------|
|/|--0--7--0--7--0--5--0--5--0--8--0--8--0--8--0--8--|
|4|--------------------------------------------------|

|--------------------------------------------------|
|--------------------------------------------------|
|--0--7--0--7--0--5--0--5--0--8--0--8--0--8--0--5--|
|--------------------------------------------------|

|--------------------------------------------------|
|--------------------------------------------------|
|-----1-----1-----1-----1--1--1--1--1--1--1--1--1--|
|--1-----1-----1-----1-----------------------------|

|----------------------------------------------------| |
|----------------------------------------------------|*|
|-----1-----1-----1-----1--1--1--1--5-3-1--3-1-0--1--|*|
|--1-----1-----1-----1-------------------------------| |



        ==============
        | Supplement |
        ==============

        |--------------------------------------------------|
        |--------------------------------------------------|
        |-----1-----1-----1-----1--1--1--0--3--3--3--3--0--|
        |--1-----1-----1-----1-----------------------------|



================================================================================
Riff 2.2: Play 3 times
================================================================================


||--------------------------------------------------|
||--------------------------------------------------|
||--0--7--0--7--0--5--0--5--0--8--0--8--0--8--0--8--|
||--------------------------------------------------|

|--------------------------------------------------|
|--------------------------------------------------|
|--0--7--0--7--0--5--0--5--0--8--0--8--0--8--0--5--|
|--------------------------------------------------|

|--------------------------------------------------|
|--------------------------------------------------|
|-----1-----1-----1-----1--1--1--1--1--1--1--1--1--|
|--1-----1-----1-----1-----------------------------|

|--------------------------------------------------| |
|--------------------------------------------------|*|
|-----1-----1-----1-----1--1--1--0--3--3--3--3--0--|*|
|--1-----1-----1-----1-----------------------------| |



This riff is the same as riff 2.1, except the last bar is permanently replaced
by the supplement.



================================================================================
Riff 3: [Tempo = 105 BPM]
================================================================================


-----------
Part 1: x 2
-----------


||---------------------------------------------------|
||--10-----9-----7-----2-----5-----3-----0-----2--3--|
||------0-----0-----0-----0-----0-----0-----0--------|
||---------------------------------------------------|

|--------------------------------------------------| |
|--------------------------------------------------|*|
|--0--0--0--0--0--0--0--0--0--0--0--0--0--0--0--0--|*|
|--------------------------------------------------| |



-----------
Part 2: x 2
-----------


|--------------------------------------------------|
|-----3-----3-----3-----3-----0-----0-----0-----0--|
|--0-----0-----0-----0-----0-----0-----0-----0-----|
|--------------------------------------------------|

|--------------------------------------------------| |
|-----7-----7-----7-----7-----7-----7-----7-----7--|*|
|--0-----0-----0-----0-----0-----0-----0-----0-----|*|
|--------------------------------------------------| |


---------------
Play part 1 x 2
---------------

---------------
Play part 2 x 2
---------------

---------------
Play part 1 x 2
---------------

---------------
Play part 2 x 2
---------------


Riff 3 summary:        Part 1 x 2
                       Part 2 x 2
                       Part 1 x 2
                       Part 2 x 2
                       Part 1 x 2
                       Part 2 x 2



On the last 2 bars, the tempo gradually decreases to 60 BPM, and remains at
this tempo until the end of the song



================================================================================
Riff 4: Play 4 times, until fade
================================================================================


||--------------------------------------------------|
||--------------------------------------------------|
||--5--5--5--5--5--5--5-----------------------------|
||-------------------------5--5--5--5--5--5--5-7-8\-|

|------------------------------------------|
|------------------------------------------|
|------------------------------------------|
|--0--------7--------4----5--7----5----4-5-|

|--------------------------------------------------|
|--------------------------------------------------|
|--5--5--5--5--5--5--5-----------------------------|
|-------------------------5--5--5--5--5--5--5-7-8\-|

|------------------------------------------------| |
|------------------------------------------------|*|
|------------------------7-8---(5/3)---(2/5\ 2)--|*|
|--7--------5--------4---------------------------| |



================================================================================
End
================================================================================


Tab summary:        Riff 1 x 4
                    Riff 2.1 x 3
                    Riff 2.2 x 3
                    Riff 3:
                            Part 1 x 2
                            Part 2 x 2
                            Part 1 x 2
                            Part 2 x 2
                            Part 1 x 2
                            Part 2 x 2
                    Riff 4 x 4

                    END

  Visit MetalTabs.com for more metal tablature

bottom separator

Contact Us | Privacy Policy | Disclaimer | Legal Notice
Copyright © 2001-2014 MetalTabs.com. All Rights Reserved.