top separator

Home

Forum

What's New

Submit a Tab

FAQ

Links

Contact Us

Link to Us

MuSpy.com

MetalTabs.com logo

Bands

0-9

A

B

C

D

E

F

G

H

I

J

K

L

M

N

O

P

Q

R

S

T

U

V

W

X

Y

Z

Search

What

Where
 

Mourning Beloveth - "Elemental Nausea" Guitar Tab

Plain Text Version
More Mourning Beloveth Tabs

Hits: 3545
Rated: 5.00 out of 5 (14 votes)
Updated: 2006-11-07 06:24:21

 

By:

Paddy

sendpm.gif

email.gif

Important note
This tab is available online because we obtained explicit permission from Mourning Beloveth or their label.


#----------------------------------PLEASE NOTE---------------------------------#
#This file is the author's own work and represents their interpretation of the #
#song. You may only use this file for private study, scholarship, or research. #
#Unless specified otherwise, this is NOT an official tab from the band members.#
#------------------------------------------------------------------------------#

  Visit MetalTabs.com for more metal tablature
  
================================================================================
                        M O U R N I N G   B E L O V E T H

                                        -

                         E L E M E N T A L   N A U S E A
================================================================================




                               A MURDEROUS CIRCUS
                            (c) Grau Records - 2005
                        http://www.mourningbeloveth.com/


                              Tune Down 1 & 1/2 Steps
                                  C# F# B E G# C#

                                 Tempo =  75 BPM
                             Time Signature = Varies



                          -----------------------------
                                 Transcribed by

                                 PADDY MCMULLAN
                           stinkypoohpants@yahoo.co.uk

                                   Version 1.4
                     (Corrections Outlined at Bottom of Tab)
                             -----------------------

                             Tablature Symbols Used:


 P.M...    -  Palm Mute
 p         -  Pull-Off
 h         -  Hammer-On
 (/)       -  Legato Slide (Blank space indicates length of slide)
 \         -  Slide Down to/Down From (Blank space indicates length of slide)
 /         -  Slide Up To/Up From (Blank space indicates length of slide)
 ( )       -  Ghost Note/Tied Note/Implied Note
 ~~        -  Vibrato


================================================================================
Intro: Guitar 1's parts with clean tone
================================================================================


* Let notes ring wherever possible *


-----------
Part 1: x 4
-----------

| |------------------------| |--------------------------------------| |
| |------------------------| |--------------------------------------| |
|9|--7--9------------------|7|--7--9--------10----------------------|*|
|/|--7-----7---------------|/|--7-----7---------7-------------------|*|
|8|--0--------0------------|4|--0--------0---------0----------------| |
| |------------------------| |--------------------------------------| |



-----------
Part 2: x 1
-----------

|  |--------------------------------------|----------------------------------||
|  |--------------------1-----------------|----------------------------------||
|12|-----------0-----------------0--------|----------------------------------||
|/ |-----2--------2--------2--------2-----|----------------------------------||
|8 |--3-----3--------3--------3--------2--|-----2-----2--3--3h5-------2------||
|  |--------------------------------------|--3-----3-------------------------||



-----------
Part 3: x 1
-----------


| |---------------------------| |--------------------------------------|
| |---------------------------| |--------------------------------------|
|9|-----9--------9------------|7|--7--9--------10----------------------|
|/|--------7--------7---------|/|--7-----7---------7-------------------|
|8|--0--------0--------0------|4|--0--------0---------0----------------|
| |---------------------------| |--------------------------------------|

| |---------------------------| |--------------------------------------|
| |---------------------------| |--------------------------------------|
|9|--7--9--------9------------|7|--7--9--------10----------------------|
|/|--7-----7--------7---------|/|--7-----7---------7-------------------|
|8|--0--------0--------0------|4|--0--------0---------0----------------|
| |---------------------------| |--------------------------------------|



---------------
Play Part 2 x 1
---------------


-----------
Part 4: x 1
-----------

| |-----------------------------| |--------------------------------------|
| |-----------------------------| |--------------------------------------|
|9|-----9--------9--------9-----|7|--7--9--------10----------------------|
|/|--------7--------7--------7--|/|--7-----7---------7-------------------|
|8|--0--------0--------0--------|4|--0--------0---------0----------------|
| |-----------------------------| |--------------------------------------|

| |-----------------------------| |--------------------------------------|
| |-----------------------------| |--------------------------------------|
|9|--7--9--------9--------9-----|7|--7--9--------10----------------------|
|/|--7-----7--------7--------7--|/|--7-----7---------7-------------------|
|8|--0--------0--------0--------|4|--0--------0---------0----------------|
| |-----------------------------| |--------------------------------------|



---------------------------------
Part 2 with slight variation: x 1
---------------------------------


|  |-----------------------------------|----------------------------------|
|  |--------------------1--------------|----------------------------------|
|12|-----------0---------------0-------|----------------------------------|
|/ |-----2--------2--------------------|----------------------------------|
|8 |--3-----3--------3--------------0--|-----2-----2--3--3h5-------2------|
|  |-----------------------------------|--3-----3-------------------------|



-----------
Part 5: x 1
-----------


| |------------------------| |------------------------------------------|
| |------------------------| |------------------------------------------|
|9|-----9------------------|7|--7--9--------10--------10----------------|
|/|--------7---------------|/|--7-----7---------7---------7-------------|
|8|--0--------0------------|4|--0--------0---------0---------0----------|
| |------------------------| |------------------------------------------|

| |------------------------| |------------------------------------------|
| |------------------------| |------------------------------------------|
|9|--7--9------------------|7|--7--9--------10--------10----------------|
|/|--7-----7---------------|/|--7-----7---------7---------7-------------|
|8|--0--------0------------|4|--0--------0---------0---------0----------|
| |------------------------| |------------------------------------------|



-------------------------------------
Play Part 2 with slight variation x 1
-------------------------------------


Intro Summary:        Part 1 x 4
                      Part 2 x 1
                      Part 3 x 1
                      Part 2 x 1
                      Part 4 x 1
                      Part 2 w/variation x 1
                      Part 5 x 1
                      Part 2 w/variation x 1



================================================================================
Intro: Guitar 2's parts with clean tone
================================================================================


* Let notes ring wherever possible *


-----------
Part 1: x 4
-----------

| |------------------------| |--------------------------------------| |
| |------------------------| |--------------------------------------| |
|9|--7--9------------------|7|--7--9--------10----------------------|*|
|/|--7-----7---------------|/|--7-----7---------7-------------------|*|
|8|--0--------0------------|4|--0--------0---------0----------------| |
| |------------------------| |--------------------------------------| |



-----------
Part 2: x 1
-----------

|  |--------------------------------------|----------------------------------||
|  |--------------------1-----------------|----------------------------------||
|12|-----------0-----------------0--------|----------------------------------||
|/ |-----2--------2--------2--------2-----|----------------------------------||
|8 |--3-----3--------3--------3--------2--|-----2-----2--3--3h5-------2------||
|  |--------------------------------------|--3-----3-------------------------||



-----------
Part 3: x 1
-----------


| |---------------------------| |--------------------------------------|
| |---------------------------| |--------------------------------------|
|9|-----9--------9------------|7|--7--9--------10----------------------|
|/|--------7--------7---------|/|--7-----7---------7-------------------|
|8|--0--------0--------0------|4|--0--------0---------0----------------|
| |---------------------------| |--------------------------------------|

| |------------------------| |--------------------------------------|
| |------------------------| |--------------------------------------|
|9|--7--9------------------|7|--7--9--------10----------------------|
|/|--7-----7---------------|/|--7-----7---------7-------------------|
|8|--0--------0------------|4|--0--------0---------0----------------|
| |------------------------| |--------------------------------------|



---------------
Play Part 2 x 1
---------------


-----------
Part 4: x 1
-----------


| |---------------------------| |--------------------------------------|
| |---------------------------| |--------------------------------------|
|9|-----9--------9------------|7|--7--9--------10----------------------|
|/|--------7--------7---------|/|--7-----7---------7-------------------|
|8|--0--------0--------0------|4|--0--------0---------0----------------|
| |---------------------------| |--------------------------------------|

| |------------------------| |--------------------------------------|
| |------------------------| |--------------------------------------|
|9|--7--9------------------|7|--7--9--------10----------------------|
|/|--7-----7---------------|/|--7-----7---------7-------------------|
|8|--0--------0------------|4|--0--------0---------0----------------|
| |------------------------| |--------------------------------------|



---------------------------------
Part 2 with slight variation: x 1
---------------------------------


|  |-----------------------------------|----------------------------------|
|  |--------------------1--------------|----------------------------------|
|12|-----------0---------------0-------|----------------------------------|
|/ |-----2--------2--------------------|----------------------------------|
|8 |--3-----3--------3--------------0--|-----2-----2--3--3h5-------2------|
|  |-----------------------------------|--3-----3-------------------------|



-----------
Part 5: x 1
-----------


| |------------------------| |--------------------------------------|
| |------------------------| |--------------------------------------|
|9|-----9------------------|7|--7--9--------10----------------------|
|/|--------7---------------|/|--7-----7---------7-------------------|
|8|--0--------0------------|4|--0--------0---------0----------------|
| |------------------------| |--------------------------------------|

| |------------------------| |--------------------------------------|
| |------------------------| |--------------------------------------|
|9|--7--9------------------|7|--7--9--------10----------------------|
|/|--7-----7---------------|/|--7-----7---------7-------------------|
|8|--0--------0------------|4|--0--------0---------0----------------|
| |------------------------| |--------------------------------------|



-------------------------------------
Play Part 2 with slight variation x 1
-------------------------------------


Intro summary:        Part 1 x 4
                      Part 2 x 1
                      Part 3 x 1
                      Part 2 x 1
                      Part 4 x 1
                      Part 2 w/variation x 1
                      Part 5 x 1
                      Part 2 w/variation x 1



================================================================================
Intro: Guitar 3's parts with clean tone
================================================================================


* Let notes ring wherever possible *


| |----------------------| |-----------------------------------|
| |----------------------| |-----------------------------------|
|9|--*-------------------|7|-----------------------------------|
|/|--0--2----------------|/|--0--2--2-(2/ 3)-------------------|
|8|--0-------------------|4|--0-----0--0-----------------------|
| |----------------------| |-----------------------------------|


[*] The open note on the D string is not played the first time


This section enters on alongside part 3 of guitars 1 and 2.  It plays throughout
the intro except during part 2 of the first guitar's parts.



================================================================================
Riff 1: Guitars 1 and 2 (Play 4 times)
================================================================================


|  |-------------------------------------------|
|  |-------------------------------------------|
|12|-----12---------9---------10---------7-----|
|/ |---------10--------10---------10--------9--|
|8 |--0----------0---------0----------0--------|
|  |-------------------------------------------|

|---------------------------------------|--------------------------------------|
|---------------------------------------|--------------------------------------|
|-----------9----------------9-7--------|-----9--------7--------4--------7-----|
|-----7----------7-----7---------10--9--|--------7--------5--------5--------5--|
|--0-----0----------0-----0-------------|--0--------0--------0--------0--------|
|---------------------------------------|--------------------------------------|

|-------------------------------------| |
|-------------------------------------| |
|-----------5----------5-----4-----0--|*|
|-----3----------3--------------------|*|
|--0-----0----------0-----0-----0-----| |
|-------------------------------------| |



================================================================================
Riff 2: Guitars 1 and 2 (Play 4 times) [Tempo = 85 BPM]
================================================================================


* Let notes ring wherever possible *


| |--------------------------------------------------|
| |--------------------------------------------------|
|8|--------------------------------------------------|
|/|-----2-----2-----0-----0-----3-----3-----3-----3--|
|4|--0-----0-----0-----0-----0-----0-----0-----0-----|
| |--------------------------------------------------|

|--------------------------------------------------|
|--------------------------------------------------|
|--------------------------------------------------|
|-----2-----2-----0-----0-----3-----3-----3-----0--|
|--0-----0-----0-----0-----0-----0-----0-----0-----|
|--------------------------------------------------|

|--------------------------------------------------|
|--------------------------------------------------|
|--------------------------------------------------|
|-----3-----3-----3-----3-----2-----2-----2-----2--|
|--------------------------------1-----1-----1-----|
|--1-----1-----1-----1-----1-----------------------|

|--------------------------------------------------| |
|--------------------------------------------------| |
|--------------------------------------------------|*|
|-----3-----3-----3-----3-----2-----2-----2-----2--|*|
|--1-----------------------------1-----1-----1-----| |
|--------1-----1-----1-----1-----------------------| |



================================================================================
Riff 3.1: Guitars 1 and 2 with heavy distortion (Play 4 times)
================================================================================


||--------------------------------------------------|
||--------------------------------------------------|
||--------------------------------------------------|
||-----2-----2-----0-----0-----3-----3-----3-----3--|
||--0--0--0--0--0--0--0--0--0--0--0--0--0--0--0--0--|
||--------------------------------------------------|
   P.M   ...   ...   ...   ...   ...   ...   ...

|--------------------------------------------------|
|--------------------------------------------------|
|--------------------------------------------------|
|-----2-----2-----0-----0-----3-----3-----3-----3--|
|--0--0--0--0--0--0--0--0--0--0--0--0--0--0--0--0--|
|--------------------------------------------------|
  ...   ...   ...   ...   ...   ...   ...   ...

|--------------------------------------------------|
|--------------------------------------------------|
|--------------------------------------------------|
|-----3-----3-----3-----3-----2-----2-----2-----2--|
|-----1-----1-----1-----1--1--1--1--1--1--1--1--1--|
|--1-----1-----1-----1-----------------------------|
  ...   ...   ...   ...   ...   ...   ...   ...

//                  Last Bar                        \\
|--------------------------------------------------| |
|--------------------------------------------------| |
|--------------------------------------------------|*|
|-----3-----3-----3-----3-----2-----2-----2-----2--|*|
|-----1-----1-----1-----1--1--1--1--1--1--1--1--1--| |
|--1-----1-----1-----1-----------------------------| |
  ...   ...   ...   ...   ...   ...   ...   ...



After playing the first repeat, the tempo increases to 100 BPM.

On the last repeat, replace the last bar with the supplement:



        ==============
        | Supplement |
        ==============

        |--------------------------------------------------|
        |--------------------------------------------------|
        |--------------------------------------------------|
        |-----3-----3-----3-----3-----2-----2-----5-----0--|
        |-----1-----1-----1-----1--1--1--0--3--3--3--3--0--|
        |--1-----1-----1-----1-----------------------------|
          ...   ...   ...   ...   ...   ...   ...   ...


Play this riff by using a "bouncing" motion with your picking hand, keeping a
strict down/up picking method.



================================================================================
Riff 3.2: Guitars 1 and 2 (Play 3 times)
================================================================================


||--------------------------------------------------|
||--------------------------------------------------|
||--------------------------------------------------|
||-----2-----2-----0-----0-----3-----3-----3-----3--|
||--0--0--0--0--0--0--0--0--0--0--0--0--0--0--0--0--|
||--------------------------------------------------|
   ...   ...   ...   ...   ...   ...   ...   ...

|--------------------------------------------------|
|--------------------------------------------------|
|--------------------------------------------------|
|-----2-----2-----0-----0-----3-----3-----3-----3--|
|--0--0--0--0--0--0--0--0--0--0--0--0--0--0--0--0--|
|--------------------------------------------------|
  ...   ...   ...   ...   ...   ...   ...   ...

|--------------------------------------------------|
|--------------------------------------------------|
|--------------------------------------------------|
|-----3-----3-----3-----3-----2-----2-----2-----2--|
|-----1-----1-----1-----1--1--1--1--1--1--1--1--1--|
|--1-----1-----1-----1-----------------------------|
  ...   ...   ...   ...   ...   ...   ...   ...

|--------------------------------------------------| |
|--------------------------------------------------| |
|--------------------------------------------------|*|
|-----3-----3-----3-----3-----2-----2-----5-----0--|*|
|-----1-----1-----1-----1--1--1--0--3--3--3--3--0--| |
|--1-----1-----1-----1-----------------------------| |
  ...   ...   ...   ...   ...   ...   ...   ...



This riff is the same as riff 3.1, except the supplement becomes the last bar
permanently.



================================================================================
Lead Guitar 1 with heavy distortion: (Play once through during riff 3.2)
================================================================================


||-------------------------------------|-------------------------------------|
||-------------------------------------|-------------------------------------|
||-------------------------------------|-------------------------------------|
||--2--------------0----3--------------|--2--------------0----3--------------|
||-------------------------------------|-------------------------------------|
||-------------------------------------|-------------------------------------|

|------------------------------------|----------------------------------------|
|------------------------------------|----------------------------------------|
|------------------------------------|----------------------------------------|
|--3------------------2--------------|--(2)--3--------------2---------5-------|
|------------------------------------|---------------------------3---(3)---0--|
|------------------------------------|----------------------------------------|

|-------------------------------------|-------------------------------------|
|-------------------------------------|-------------------------------------|
|-------------------------------------|-------------------------------------|
|--2--------------0----3--------------|--2--------------0----3--------------|
|-------------------------------------|-------------------------------------|
|-------------------------------------|-------------------------------------|

|------------------------------------|----------------------------------------|
|------------------------------------|----------------------------------------|
|------------------------------------|----------------------------------------|
|--3------------------2--------------|--(2)--3--------------2---------5-------|
|------------------------------------|---------------------------3---(3)---0--|
|------------------------------------|----------------------------------------|

|-----------------------------------||
|-----------------------------------||
|-----------------------------------||
|--2--------------------------------||
|-----------------------------------||
|-----------------------------------||



================================================================================
Lead Guitar 2 with heavy distortion: (Play once through during riff 3.2)
================================================================================


||------------------------------------|-------------------------------------|
||------------------------------------|-------------------------------------|
||--2------------------5--------------|--(5)--9-------------5------------5--|
||------------------------------------|-------------------------------------|
||------------------------------------|-------------------------------------|
||------------------------------------|-------------------------------------|

|------------------------------------|--------------------------------------|
|------------------------------------|-------6-------------5---------8\-----|
|---------------------2--------------|--(2)---------------------5-----------|
|--3---------------------------------|--------------------------------------|
|------------------------------------|--------------------------------------|
|------------------------------------|--------------------------------------|

|---------------------------------------|--------------------------------------|
|---------------------------------------|--------------------------------------|
|--2--------------2--2--5------------5--|--5--9------------9--9--5-------------|
|---------------------------------------|--------------------------------------|
|---------------------------------------|--------------------------------------|
|---------------------------------------|--------------------------------------|

|------------------------------------|-----------------------------------------|
|------------------------------------|-------6----------------5---------8------|
|---------------------2--------------|--(2)------------------------5-----------|
|--3---------------------------------|-----------------------------------------|
|------------------------------------|-----------------------------------------|
|------------------------------------|-----------------------------------------|

|----------------------------------||
|--(8)-----------------------------||
|----------------------------------||
|----------------------------------||
|----------------------------------||
|----------------------------------||



================================================================================
Riff 4: Guitars 1 and 2 [Tempo = 105 BPM]
================================================================================


-----------
Part 1: x 2
-----------


||---------------------------------------------------|
||---------------------------------------------------|
||---------------------------------------------------|
||--10-----9-----7-----2-----5-----3-----0-----2--3--|
||------0-----0-----0-----0-----0-----0-----0--------|
||---------------------------------------------------|
       ...   ...   ...   ...   ...   ...   ...

|----------------------------------------------------||
|----------------------------------------------------||
|------------------------------------------------*---||
|-----2-----2-----2-----2-----2-----2-----2-----0/7--||
|--0-----0-----0-----0-----0-----0-----0-----0-------||
|----------------------------------------------------||
  ...   ...   ...   ...   ...   ...   ...   ...

* Guitar 1 plays note on left side of slash, guitar 2 plays note on right side.
  This only occurs on the first repeat; on the last repeat, both guitars play
  note on left side of slash.


-----------
Part 2: x 2
-----------


|--------------------------------------------------|
|--------------------------------------------------|
|--------------------------------------------------|
|-----3-----3-----3-----3-----0-----0-----0-----0--|
|--0-----0-----0-----0-----0-----0-----0-----0-----|
|--------------------------------------------------|
  ...   ...   ...   ...   ...   ...   ...   ...

|----------------------------------------------------||
|----------------------------------------------------||
|------------------------------------------------*---||
|-----7-----7-----7-----7-----7-----7-----7-----0/7--||
|--0-----0-----0-----0-----0-----0-----0-----0-------||
|----------------------------------------------------||
  ...   ...   ...   ...   ...   ...   ...   ...

* Guitar 1 plays note on left side of slash, guitar 2 plays note on right side.
  This only occurs on the last repeat; on the first repeat, both guitars play
  note on left side of slash.


---------------
Play part 1 x 2
---------------

---------------
Play part 2 x 2
---------------

---------------
Play part 1 x 2
---------------

---------------
Play part 2 x 2
---------------



On the last two bars of part 2's last repeat, the tempo gradually decreases to
60 BPM, and the song remains at this tempo until the end.



Riff 4 summary:        Part 1 x 2
                       Part 2 x 2
                       Part 1 x 2
                       Part 2 x 2
                       Part 1 x 2
                       Part 2 x 2



================================================================================
Riff 5a: Guitars 1 and 2 (Play 4 times until fade)
================================================================================


||------------------------------------------------------------------|
||------------------------------------------------------------------|
||----(7/10)-10--9--9h10p9-7~-7~-(7)--------------------------------|
||--7--0-----0---0--0------0--0------(7/10)-10--9--9--7--7-9-(9/10)-|
||--0-----------------------------0---0-----0---0--0--0--0-0--0-----|
||------------------------------------------------------------------|
   ...                           ...

                                 |__3__|
|-------------------------------------------------------|
|-------------------------------------------------------|
|-------------------------------------------------------|
|-----------9--------6----7--9---9h10p(9\7)---((7)\6)-7-|
|--7----------------------------------------------------|
|-------------------------------------------------------|


|------------------------------------------------------------------|
|------------------------------------------------------------------|
|----(7/10)-10--9--9h10p9-7~-7~-(7)--------------------------------|
|--7--0-----0---0--0------0--0------(7/10)-10--9--9--7--7-9-(9/10)-|
|--0-----------------------------0---0-----0---0--0--0--0-0--0-----|
|------------------------------------------------------------------|
  ...                           ...

|----------------------------------------------------------| |
|----------------------------------------------------------| |
|----------------------------------------------------------|*|
|--9-------(9)\7-7-------(7)\6-6---------------------------|*|
|----------------------------------7-7h8---(5\3)---2-5--2--| |
|----------------------------------------------------------| |



================================================================================
Riff 5b: Lead Guitar 1 (Play 4 times until fade)
================================================================================


||----------------------------------------------------------------|
||-R -------------------------------------------------------------|
||-E -(9/10)-10--9--9h10p9-7~-7~~---------------------------------|
||-S ------------------------------(9/10)-10--9--9--7--7-9-(9/10)-|
||-T -------------------------------------------------------------|
||----------------------------------------------------------------|

                                 |__3__|
|------------------------------------------------------|
|------------------------------------------------------|
|------------------------------------------------------|
|-----------9--------6----7--9---9h10p(9\7)---(7)\6)-7-|
|--7---------------------------------------------------|
|------------------------------------------------------|

|----------------------------------------------------------------|
|-R -------------------------------------------------------------|
|-E -(9/10)-10--9--9h10p9-7~-7~~---------------------------------|
|-S ------------------------------(9/10)-10--9--9--7--7-9-(9/10)-|
|-T -------------------------------------------------------------|
|----------------------------------------------------------------|

|----------------------------------------------------------| |
|----------------------------------------------------------| |
|----------------------------------------------------------|*|
|--9-------(9)\7-7-------(7)\6-6---------------------------|*|
|----------------------------------7-7h8---(5\3)---2-5--2--| |
|----------------------------------------------------------| |



================================================================================
End
================================================================================


Tab summary:        Intro:
                            Part 1 x 4
                            Part 2 x 1
                            Part 3 x 1
                            Part 2 x 1
                            Part 4 x 1
                            Part 2 w/variation x 1
                            Part 5 x 1
                            Part 2 w/variation x 1
                    Riff 1 x 4
                    Riff 2 x 4
                    Riff 3.1 x 4
                    Riff 3.2 x 3 + Lead 1 and 2 x 1
                    Riff 4:
                            Part 1 x 2
                            Part 2 x 2
                            Part 1 x 2
                            Part 2 x 2
                            Part 1 x 2
                            Part 2 x 2
                    Riff 5a + 5b x 4

                    END


-----------------------
Corrections (18/08/06):
-----------------------

* Corrected mislabeled riffs
* Minor adjustments to layout


-----------------------
Corrections (05/02/06):
-----------------------

* Added Riff 5b
* Minor corrections to Riff 5a


-----------------------
Corrections (05/01/06):
-----------------------

* Corrected Bar 1 of Riff 1


-----------------------
Corrections (01/06/05):
-----------------------

* Corrected slide directions in riff 5
* Corrected record company details

  Visit MetalTabs.com for more metal tablature

bottom separator

Contact Us | Privacy Policy | Disclaimer | Legal Notice
Copyright © 2001-2014 MetalTabs.com. All Rights Reserved.