top separator

Home

Forum

What's New

Submit a Tab

FAQ

Links

Contact Us

Link to Us

MuSpy.com

MetalTabs.com logo

Bands

0-9

A

B

C

D

E

F

G

H

I

J

K

L

M

N

O

P

Q

R

S

T

U

V

W

X

Y

Z

Search

What

Where
 

Axis of Advance - "Cube of Odium" Guitar Tab

Plain Text Version
More Axis of Advance Tabs

Hits: 3081
Rated: 5.00 out of 5 (4 votes)
Updated: 2005-05-08 08:42:34

 

By:

nyanchuk

sendpm.gif

email.gif

Important note
This tab is available online because we obtained explicit permission from Axis of Advance or their label.


#----------------------------------PLEASE NOTE---------------------------------#
#This file is the author's own work and represents their interpretation of the #
#song. You may only use this file for private study, scholarship, or research. #
#Unless specified otherwise, this is NOT an official tab from the band members.#
#------------------------------------------------------------------------------#

  Visit MetalTabs.com for more metal tablature
  
Band:  Axis of Advance
Album: Obey
Song:  Cube Od Odium

Copyright (c)  Osmose Productions (2004)

Transcribed By: nyanchuk
Email:          uklearpower@hotmail.com


Tuning B E A D F# B


One space between staffs seperate Both guitars in the staff
Two spaces between staffs indicate a continuation of the staff
Three spaces between staffs indicate a new Riff

I do not include the staff for the top F# and B strings if possible
...to conserve space

I refuse to tab the solo...it is too hard to properly distinguish...
...its sounds like going up and down the B harmonic minor scale




Intro: (left guitar)
|---------------------------------------------------
|-3-----------5--3--0--7--2-3p2--2----3--2--0--0----
|----0--7------------------------3------------------
|--------------------------------0------------------


 ---------------------------------------------------|
 -3-----------5--3--0--2--2-3p2--2------------------|
 ----0-----------------0---------3-----3--2--0--0---|
 -------0------------------------0-----0--0--0--0---|



Intro: (left guitar)
|---------------------------------------------------
|-3-----------5--3--0--2----------------------------
|----0-----------------0---------3-----3--2--0--0---
|-------0-----------------0-1p0--0-----0--0--0--0---
|      (right guitar)
|----------------------5--4-5p4--------5--4--2--4---
|-3--7---------------------------3------------------
|----0--0-------------------------------------------
|---------------------------------------------------


 ---------------------------------------------------
 -------------5--3--0--2----------------------------
 ----0-----------------0---------3-----3--2--0--0---
 -1-----0-----------------0-1p0--0-----0--0--0--0---

 -1h2------------------5--4-5p4--------5--4--2--4---
 --------------------------------3------------------
 ----0----------------------------------------------
 ---------------------------------------------------


 ---------------------------------------------------
 -3-----------5--3--0--2----------------------------
 ----0-----------------0---------3-----3--2--0--0---
 -------0-----------------0-1p0--0-----0--0--0--0---

 -1h2-----------------------------------------------
 -------------5--3--0--7--2-3p2---------------------
 ----0---------------------------3-----3--2--0--0---
 --------------------------------------0--0--0--0---


 ---------------------------------------------------|
 -3-----------5--3--0--2----------------------------|
 ----0-----------------0---------3-----3--2--0--0---|
 -------0-----------------0-1p0--0-----0--0--0--0---|
                                                    |
 ---------------------------------------------------|
 -3--7--2-----5--3--0--7--2-3p2--2-----3--2--0--0---|
 --------------------------------3------------------|
 ---------------------------------------------------|



Riff A: (left guitar)
|-------------0--00---------------------------0--------------------|
|-------------0--00---------------------------0--------------------|
|-7---------5-5--55---------3-3-3-7---------5-5---2---\\\\\\\\\\\\-|
|-7---------5-5--55---------3-3-3-7---------5-5---2---\\\\\\\\\\\\-|
|-5---------3-3--33---------1-1-1-5---------3-3---0---\\\\\\\\\\\\-|
|(right guitar)                                                    | x2
|-----------0-0--00-------------------------0-0--------------------|
|-----------0-0--00-------------------------0-0--------------------|
|-7---------5-5--55---------3-3-3-7---------5-5---2----------------|
|-7---------5-5--55---------3-3-3-7---------5-5---2----------------|
|-5---------3-3--33---------1-1-1-5---------3-3---0----------------|



Riff B: (both guitars)
|-------4-5---5-4-4---5-4---------------5-7---7-5-4---5-4-5--------
|-7-5-7-4-5-5-5-4-4-5-5-4-2-------7-5-7-5-7-5-7-5-4-5-5-4-5--------
|-7-5-7-2-3-5-3-2-2-5-3-2-2-------7-5-7-3-5-5-5-3-2-5-3-2-3--------
|-5-3-5-----3-------3-----0-------5-3-5-----3-------3--------------

 *slower*
 -------4-5---5-4-4---5-4---------------5-7---7-5-4---5-4-5-557-77-|
 -7-5-7-4-5-5-5-4-4-5-5-4-2-------7-5-7-5-7-5-7-5-4-5-5-4-5-557-77-|
 -7-5-7-2-3-5-3-2-2-5-3-2-2-------7-5-7-3-5-5-5-3-2-5-3-2-3-335-55-|
 -5-3-5-----3-------3-----0-------5-3-5-----3-------3--------------|



Riff C: (left guitar)
|-----------------3---3---------------------------3---3---3---------|
|-----------1-----3---3---------------------1-----3---3---3---------|
|-2---2-------2---4---3-----------2---2-------2---4---3---4---------|
|-2---3-----------5-----------6-6-2---3-----------5-------5---6-6-3-|
|-0---------------5-----------6-6-0---------------5-------5---6-6-3-|
|-----------------3-----------4-4-----------------3-------3---4-4-1-|
|(right guitar)                                                     |
|-------------------------------------------------------------------|
|-------------------------------------------------------------------|
|-2---2---------------------------2---2-----------------------------|
|-2---3-----------5-----------6-6-2---3-----------5-----------6-3-3-|
|-0---0-----------5-----------6-6-0---0-----------5-----------6-3-3-|
|-----------------3-----------4-4-----------------3-----------4-1-1-|



Riff D: (both guitars)
|----------------------------|    |---------------------
|-5\(3)5\(3)5\(3)5-3-6---3---| x3 |-5\(3)5\(3)5\(3)5-3-- x1
|-5\(3)5\(3)5\(3)5-3-6---3---|    |-5\(3)5\(3)5\(3)5-3--
|-3\(1)3\(1)5\(3)3-1-4---1---|    |-3\(1)3\(1)5\(3)3-1--



play Riff B again



Interlude: (left guitar)
|-----2---3-------0---3--------------------------------------------|
|-2-----------3-----------0-------2-----------------------5--------|
|-------------------------1-------2-----------------------5--------|
|---------------------------------0-----------------------3--------|
|(right guitar)                                                    |
|------------------------------------------------------------------|
|------------------------------------------------------------------|
|-------------------------6-----------------------3---1---5--------|
|-------------------------5-------0---5---4---1--------------------|



Riff E1:
|-------------------------------------|
|-2222222222222222--------------<3>bh-|
|-222222222222222233333333------------|
|-0000000000000000--------1111111-----|
| pm..............                   |
|                                   |   x4 (4th time, no pinch harmoic)
|----------------------------------|
|----------------------------------|
|-----------------33333333---------|
|-0000000000000000--------11111111-|
  pm..............................



Riff Eish Section: (T represents 10, V represents 12)
|-----------------55555555---------
|-22222222222222225555555533333333-
|-22222222222222223333333333333333-
|-0000000000000000--------11111111-
|
|-----------------55555555---------
|-22222222222222225555555533333333-
|-22222222222222223333333333333333-
|-0000000000000000--------11111111-


 -------------------------------------------------55555555---------
 -TTTTVVVVTTTT9999999999999977559999999999999999995555555533333333-
 -0000000000000000777777777777777777777777777777773333333333333333-
 ---------------------------------7777777777777777--------11111111-

 -------------------------------------------------55555555---------
 -77777777777777772222222222------22222222222222225555555533333333-
 -77777777777777772222222222------22222222222222223333333333333333-
 -555555555555555500000000005533330000000000000000--------11111111-


 ----------------------|
 -3---TTTTVVVVTTTT99TT-|
 -3---0000000000000000-|
 -1--------------------|
                       |
 ----------------------|
 -3---7777777777777777-|
 -3---7777777777777777-|
 -1---5555555555555555-|



Part Underneath Solo: (T represents 10)
|--------------------------------------------------
|-222222777777888888333333555555888888-------------
|-------------------------------------555000000555-
|--------------------------------------------------
|
|--------------------------------------------------
|--------------------------------------------------
|--------------------------------------------------
|-000111444111666666111111666111666666666666666666-


 --------------------------------------------------
 -222222222222666666666333-------------------------
 -------------------------333333111111555555555555-
 --------------------------------------------------

 --------------------------------------------------
 --------------------------------------------------
 -------------------------3333331111115555555555555
 -444111555222444444444111-------------------------


 -444444999999TTTTTT555555777777TTTTTT999999999999-
 --------------------------------------------------
 --------------------------------------------------
 --------------------------------------------------

 --------------------------------------------------
 --------------------------------------------------
 --------------------------------------------------
 -000000441444111666111111444444666666666666666666-


 -444444999999888888555555-------------------------|
 -------------------------885555333333222222222222-|
 --------------------------------------------------|
 --------------------------------------------------|
                                                   |
 --------------------------------------------------|
 --------------------------------------------------|
 -777777------------------333333333333555555555555-|
 -------555555444444111111-------------------------|



Intro-like section:
|-----------------------------------------------
|-222222222555333000777223222222222333222000000-
|-222---------------000------333333333222000000-
|-000-------------------------------------------
|
|-----------------------------------------------
|-222222222555333000777223222------333222000000-
|-222------------------------333333-------------
|-000-------------------------------------------


 --------------------------------------------------
 -333---------555333000777223222222222333222000000-
 ----000---------------000------333333333222000000-
 -------000000-------------------------------------

 --------------------------------------------------
 -333---222222555333000777223222------333222000000-
 ----000------------------------333333-------------
 --------------------------------------------------


 --------------------------------------------------
 -333---------555333000777223222222222333222000000-
 ----000---------------000------333333333222000000-
 -------000000-------------------------------------

 ----222------------------445444------555444222444-
 -333---222222555333000777------333333-------------
 --------------------------------------------------
 --------------------------------------------------


 --------------------------------------------------
 -333---------555333000777223222222222333222000000-
 ----000---------------000------333333333222000000-
 -------000000-------------------------------------

 -112222222222222222222555445444------555444222444-
 -------------------------------333333-------------
 --------------------------------------------------
 --------------------------------------------------


 -------------5--5--5--5--5---|
 -0000000000005--5--5--5--5---|
 -0000000000003--3--3--3--3---|
 -----------------------------|
                              |
 -1112222222222222222222222---|
 -----------------------------|
 -----------------------------|
 -----------------------------|



Riff E2:
|-999999999999999955555555---------
|-99999999999999995555555533333333-
|-77777777777777773333333333333333-
|-------------------------11111111-
|
|----------------------------------
|----------------------------------
|-----------------33333333---------
|-0000000000000000--------11111111-


 -------------|
 -3-----------|
 -3-----------|
 -1-(let ring)|
              |
 -------------|
 -------------|
 -------------|
 -1-(let ring)|



End Section (T represents 10, V represents 12):
|---------------------------------77777777555555555555555566666666-
|-TTTTVVVVTTTT99999999999999999999000000000000000033333333---------
|-00000000000000007777777777777777------------------------44444444-
|------------------------------------------------------------------
|
|------------------------------------------------------------------
|------------------------------------------------------------------
|-000000000000000077777777666666665555555533333333-----------------
|-------------------------------------------------1111111111111111-


 ----------------------------------------------------------
 -------------------------5-5-5-5-6-6-6-6-5-5-5-5-6-6-6-6--
 -3333333333333333333333333-3-3-3-3-3-3-3-3-3-3-3-3-3-3-3--
 ----------------------------------------------------------

 --*~really hard to hear~*---------------------------------
 -7--9--7--9-10--9109999999-9-9-9-4-4-4-4-9-9-9-9-4-4-4-4--
 -7--9--7--9-10--9109999999-9-9-9-4-4-4-4-9-9-9-9-4-4-4-4--
 -5--7--5--7--8--7-87777777-7-7-7-2-2-2-2-7-7-7-7-2-2-2-2--


 -----------------------------------------7777777755554455-
 -6666666666665555555555556-6-6-6-5-5-5-5------------------
 -3333333333333333333333333-3-3-3-3-3-3-3------------------
 ----------------------------------------------------------

 ----------------------------------------------------------
 --*~really hard to hear~*---------------------------------
 -------------------------------------------------4-4-4-4--
 -7--9--7--9-10--9109999994-4-4-4-5-5-5-5-5-5-5-5-4-4-4-4--
 -7--9--7--9-10--9109999994-4-4-4-5-5-5-5-5-5-5-5-2-2-2-2--
 -5--7--5--7--8--7-87777772-2-2-2-3-3-3-3-3-3-3-3----------


 -----------------|
 -2---------------|
 -2--(let ring)---|
 -0---------------|
                  |
 -----------------|
 -2---------------|
 -2--(let ring)---|
 -0---------------|



END (fuck...)

  Visit MetalTabs.com for more metal tablature

bottom separator

Contact Us | Privacy Policy | Disclaimer | Legal Notice
Copyright © 2001-2014 MetalTabs.com. All Rights Reserved.