top separator

Home

Forum

What's New

Submit a Tab

FAQ

Links

Contact Us

Link to Us

MuSpy.com

MetalTabs.com logo

Bands

0-9

A

B

C

D

E

F

G

H

I

J

K

L

M

N

O

P

Q

R

S

T

U

V

W

X

Y

Z

Search

What

Where
 

Himsa - "Sense Of Passings" Guitar Tab

Plain Text Version
More Himsa Tabs

Hits: 3333
Rated: 5.00 out of 5 (1 vote)
Updated: 2005-05-08 08:33:41

 

By:

christianiastheshit

sendpm.gif

email.gif

Important note
This tab is available online because we obtained explicit permission from Himsa or their label.


#----------------------------------PLEASE NOTE---------------------------------#
#This file is the author's own work and represents their interpretation of the #
#song. You may only use this file for private study, scholarship, or research. #
#Unless specified otherwise, this is NOT an official tab from the band members.#
#------------------------------------------------------------------------------#

  Visit MetalTabs.com for more metal tablature
  
Band:  HIMSA
Album: Courting Tragedy & Disaster
Song:  Sense of Passings

Copyright (c)  Prosthetic  2003
Version 1.0 - June 17th

Transcribed By: M.L
Email:          mart__420@hotmail.com


.  - palm mute           /  - slide up to
\  - slide down to       ~  - vibrato
h  - hammer on           b  - Bend
p  - pull off            Suffixes for bend
t  - tap                 f  - full bend    h - half bend
ph - pinched harmonic    q  - quarter bend t - tap bend
*  - see comment         ^  - Hold bend    r release bend
x  - Stuccatto           ~  - vibrato bend
,  - slight palm mute    () - ghost note, sustained note
"  - tremolo note        <> - Trill

Tuning C G C F A D

Riff 1

0:00                                                        Gtr.1  (2x)
|---------------------------------------------------------------------|
|-10~-----------------------------------------------------------------|
|-----7/9-9-10~--------7/12-10-10~----10----------------10~---9~------|
|-------------------7~--------------------7-10-10-12~-----------------|
|---------------------------------------------------------------------|
|---------------------------------------------------------------------|

0:00                                                        Gtr.2  (2x)
|---------------------------------------------------------------------|
|---------------------------------------------------------------------|
|-----------------------------------------------------------55-----55-|
|-----------------------------------------------------------33-----33-|
|-0---00-000-000000-0---00-000-000000-5-5-55-555-555555-3-3-33-3-3-33-|
|-0-0-00-000-000000-0-0-00-000-000000-5-5-55-555-555555-3-3-33-3-3-33-|
    . .. ... ......   . .. ... ......   . .. ... ...... . .    . .

Riff 2

0:20                                                 Gtr.1+2  (2x)
|----------------------------------------------------------------|
|----------------------------------------------------------------|
|----------------------------------------------------------------|
|----------------------------------------------------------------|
|----------------------------------------------------------------|
|-000-000---------000-000-----------888-888------------555-555---|
  ... ...         ... ...           ... ...            ... ...

Riff 3

0:40            Gtr.1                  1st end.       2nd end.
|-----------------------|----------------------|-------------|
|-----------------------|----------------------|-------------|
|-----------------------|----------------------|-------------|
|-------------323---532-|-------------323--2---|-------------|
|-0-0---535-------------|-0-0---535--------0---|-1-1/3-----|
|-0-0-0-----0-----0-----|-0-0-0-----0----------|-------------|
      .     .     .           .     .           (16)(16)

0:40            Gtr.2                  1st end.       2nd end.
|-----------------------|----------------------|-------------|
|-----------------------|----------------------|-------------|
|-----------------------|----------------------|-------------|
|-------------757---875-|-------------757------|-------------|
|-0-0---878-------------|-0-0---878--------7---|-------------|
|-0-0-0-----0-----0-----|-0-0-0-----0------7---|-5-5/8-----|
      .     .     .           .     .           (16) (16)

Riff 4

1:01                                                       Gtr.1   (2x)
|---------------------------------------------------------------------|
|---------------------------------------------------------------------|
|---------7p5h7~-------10p9h10~-------12p10h12~-------1210910-12109---|
|---------------------------------------------------------------------|
|---------------------------------------------------------------------|
|-000-000-------000-000--------888-888---------555-555----------------|
  ... ...       ... ...        ... ...         ... ...

1:01                                                       Gtr.2   (2x)
|---------------------------------------------------------------------|
|---------------------------------------------------------------------|
|--------10p9h10~-------14p12h14~-------15p14h15~------15141214-151412|
|---------------------------------------------------------------------|
|---------------------------------------------------------------------|
|-000-000--------000-000---------888-888--------555-555---------------|
  ... ...        ... ...         ... ...        ... ...

Riff 3  (2x)

Riff 5

1:41                                                        Gtr.1  (1x)
|---------------------------------------------------------------------|
|---------------------------------------------------------------------|
|---------------------------------------------------------------------|
|---------------------3--------------------------------3--5--7--10|
|-5---3---5---3---3--5--5-7-8-10-8-3---8-----------------|
|---------------------3-----------------------------------------------|
(32) (32)

1:41                                                        Gtr.2  (1x)
|---------------------------------------------------------------------|
|---------------------------------------------------------------------|
|---------------------------------------------------------------------|
|---------------------3-----------------------------------------------|
|---------------------3-----------------------------------------------|
|-8---7---8---7---3---8-----10-7-------8--8-10--12--10----|
(32) (32)

Riff 2  (2x)

Riff 6

2:22                                                   Gtr.1  (5x)
|----------------------------------------------------------------|
|----------------------------------------------------------------|
|----------------------------------------------------------------|
|---------2-3~--------------5-7~--3-5~--2-3-3-2------------------|
|---3-5~--------3-5-5-3-5-----------------------5~---------------|
|-0-----0-----0-----------0-----0-----0--------------------------|
  .     .     .           .     .     .

2:22                                                   Gtr.2  (5x)
|----------------------------------------------------------------|
|----------------------------------------------------------------|
|----------------------------------------------------------------|
|---------5-7~--------------------7-8~--5-7-7-5------------------|
|---7-8~--------7-8-8-7-8---7-8~----------------8~---------------|
|-0-----0-----0-----------0-----0-----0--------------------------|
  .      .     .           .     .     .

Riff 3  (2x)

Riff 1  (2x)

  Visit MetalTabs.com for more metal tablature

bottom separator

Contact Us | Privacy Policy | Disclaimer | Legal Notice
Copyright © 2001-2014 MetalTabs.com. All Rights Reserved.