top separator

Home

Forum

What's New

Submit a Tab

FAQ

Links

Contact Us

Link to Us

MetalTabs.com logo

Bands

0-9

A

B

C

D

E

F

G

H

I

J

K

L

M

N

O

P

Q

R

S

T

U

V

W

X

Y

Z

Search

What

Where
 

Finntroll - "Ursvamp" Guitar Tab

Plain Text Version
More Finntroll Tabs

Hits: 4462
Rated: 5.00 out of 5 (2 votes)
Updated: 2005-05-08 08:33:29

 

By:

Daniil

sendpm.gif

email.gif

Important note
This tab is available online because we obtained explicit permission from Finntroll or their label.


#----------------------------------PLEASE NOTE---------------------------------#
#This file is the author's own work and represents their interpretation of the #
#song. You may only use this file for private study, scholarship, or research. #
#Unless specified otherwise, this is NOT an official tab from the band members.#
#------------------------------------------------------------------------------#

  Visit MetalTabs.com for more metal tablature
  
FINNTROLL-Ursvamp
Nattfodd-2004
Copyright Spinefarm Records
Transcribed by Daniil Laletin
e-mail: dlaletin@mail.ru
version 1.0 April 2005

All corrections are welcome.

 " - tremolo
 / - slide down
 \ - slide up
 . - palm mute
 ~ - long sound
 x - rest
 p - pull off
 h - hammer on
 tr - trill
 () - ghost note, sustained note
 * - artificial harmonics
 b - bend

 Tuning from low to high: D G C F A D

================================

Intro (guitar + keyboard)
|---------|
|---------|
|---------|
|-7-7-7-7-|
|-7-7-7-7-|
|-5-5-5-5-|
| . . . .
|---------|
|---------|
|---5-7-9-|
|-7-------|
|---------|
|---------|


 Riff 1a (guitar + keyboard)                                    x2
|-----------------------------------------------------------------|
|-----------------------------------------------------------------|
|---------5-5--5--------------------------5-5--5-7-7--7-----------|
|-7-7--7--5-5--5-5-5--5--7-7--7----7-7--7-5-5--5-5-5--5--7--------|
|-7-7--7--3-3--3-5-5--5--7-7--7----7-7--7-3-3--3-5-5--5--7--------|
|-5-5--5---------3-3--3--5-5--5----5-5--5----------------5-(5555)-|
|                                                           ....
|-----------------------------------------------------------------|
|---------------------------------------------------8-------------|
|------------7~-9-7-----7---------------------7~--9---7~--10-9~---|
|-7-9~-10-10--------9~----10--1097-7-9~-10-10---------------------|
|-----------------------------------------------------------------|
|-----------------------------------------------------------------|
 * - don't play notes in parentheses on the second time


 Riff 1b (guitar + keyboard)
|-----------------------------------------------------------------|
|-----------------------------------------------------------------|
|-----------5--------7-------2---------------5--------------------|
|--3--------5--------7-------2------3--------5---5-------2--------|
|--3--------3--------5-------0------3--------3---3-3-333-0-0-000--|
|--1--------------------------------1--------------.-...---.-...--|
|
|-----------------------------------------------------------------|
|----8~--10-8-----8-------------------8~--10-8-----8--------------|
|-10----------9~----10-9~--7-9-----10----------9~----10-9~--7-9~--|
|------------------------------7~---------------------------------|
|-----------------------------------------------------------------|
|-----------------------------------------------------------------|

|----------------------------------------------------------------|
|----------------------------------------------------------------|
|-----------5--------7-------2------7--------2-------------------|
|--3--------5--------7-------2------7--------2-------------------|
|--3--------3--------5-------0------5--------0-------2--6----7---|
|--1-------------------------------------------------0--4----5---|
|                                                    .  .    .
|----------------------------------------------------------------|
|----8~--10-8-----8-------------------8~-------------------------|
|-10----------9~----10-9~--7-9-----10-----10-9-----9-7-----------|
|------------------------------7~--------------7~------10~-9-7~--|
|----------------------------------------------------------------|
|----------------------------------------------------------------|


 Riff 2 (guitar only)
|---------------------------------|
|---------------------------------|
|---------------------------------|
|-------------5-5-----------------|
|-----7-7-3-3-3-3-----5-5-----7-7-|
|-5-5-5-5-.-.-----3-3-3-3-5-5-5-5-|
  . .             . .     . .


 Riff 3 (guitar + keyboard)    1,2,3                                4
|----------------------------------|---------------------------------|
|----------------------------------|---------------------------------|
|----------------------------------|---------------------------------|
|------------------------------5-7-|---------------------------------|
|---7----7---7----7---7----7---5-7-|---7----7---7----7--------7--10--|
|-5----8---5----8---5----8---------|-5----8---5----8---5---8---------|
|
|----------------------------------|---------------------------------|
|----------------------------------|------------------------------8--|
|---9----9---9----9---9----9---7-9-|---9----9---9----9--------9------|
|-7---10---7---10---7---10-----5-7-|-7---10---7---10---7--10---------|
|----------------------------------|---------------------------------|
|----------------------------------|---------------------------------|


 Riff 4a (guitar + keyboard)
|-----------------------------------------------------------------------------|
|-----------------------------------------------------------------------------|
|-----------------------------------------------------------------------------|
|-10--------10--------10---------10--12--10--------10--------10--------10--12-|
|--8-8--888--8-8--888--8-8--888---8--10---8-8--888--8-8--888--8-8--888--8--10-|
|-----------------------------------------------------------------------------|
|
|----------------------------------8-7------------------------------------8-7-|
|-1010-1097-1010-1097-1010-1097-10-----8-1010-1097-1010-1097-1010-1097-10-----|
|-----------------------------------------------------------------------------|
|-----------------------------------------------------------------------------|
|-----------------------------------------------------------------------------|
|-----------------------------------------------------------------------------|


 Riff 4b (guitar + keyboard)
|---------------------------------------------------------|
|---------------------------------------------------------|
|---------------------------------------------------------|
|-7------7------7-------7-5----7------7------7-------7-5--|
|-55-555-55-555-55-555--5-3----55-555-55-555-55-555--5-3--|
|---------------------------------------------------------|
|
|------------------------5-3--------------------------5-3-|
|-66-653-66-653-66-653-6-----5-66-653-66-653-66-653-6-----|
|---------------------------------------------------------|
|---------------------------------------------------------|
|---------------------------------------------------------|
|---------------------------------------------------------|


 Riff 4c (guitar + keyboard)             1,2,3                        4
|--------------------------------------------|-------------------------|
|--------------------------------------------|-------------------------|
|--------------------------------------------|-------------------------|
|-10----10-12-10----10-12-10----10-12-10--12-|-10----10-12-10----10-12-|
|--8-88--8-10--8-88--8-10--8-88--8-10--8--10-|--8-88--8-10--8-88--8-10-|
|--------------------------------------------|-------------------------|

 Ending of the Riff 4
|-------------------------|         The keyboard line here, is identical
|-------------------------|                      to Riff 4a.
|-------------------------|       But there is one additional keyboard line,
|-------------------------|gtr 1         and it's looks like this:
|-------5-----5-8-7-5-3-2-|          |-----------------------------------|
|-0-4-7---4-7-------------|          |-----------------------------------|
|                                    |-555-5-7-555-5-7-555-5-7-555-9-7-5-|
|-------------------------|          |-----------------------------------|
|-------------------------|          |-----------------------------------|
|-------------------------|          |-----------------------------------|
|-------------------4-5-6-|gtr 2
|-------5-----5-8-7-------|
|-0-4-7---4-7-------------|


 Riff 1c (guitar + keyboard)
|-----------------------------------------------------------------|
|-----------------------------------------------------------------|
|-----------5--------7-------2---------------5--------------------|
|--3--------5--------7-------2------3--------5---5-------2--------|
|--3--------3--------5-------0------3--------3---3-3-333-0-0-000--|
|--1--------------------------------1--------------.-...---.-...--|
|
|-----------------------------------------------------------------|
|----8~--10-8-----8-------------------8~--10-8-----8--------------|
|-10----------9~----10-9~--7-9-----10----------9~----10-9~--7-9~--|
|------------------------------7~---------------------------------|
|-----------------------------------------------------------------|
|-----------------------------------------------------------------|

|------------------------------------------------------------|
|------------------------------------------------------------|
|-----------5--------7-------2------7--------2---------------|
|--3--------5--------7-------2------7--------2---------------|
|--3--------3--------5-------0------5--------0-------2--6----|
|--1-------------------------------------------------0--4----|
|                                                    .  .    .
|------------------------------------------------------------|
|----8~--10-8-----8-------------------8~---------------------|
|-10----------9~----10-9~--7-9-----10-----10-9-----9-7-------|
|------------------------------7~--------------7~------10~-9-|
|------------------------------------------------------------|
|------------------------------------------------------------|

 Endings of Riff 1c
|----------|    |----------------------------|
|----------|    |----------------------------|
|----------|    |----------------------------|
|--------5-|    |---------7-6~---7------6--7-|
|------7---|F   |------7----------------6--7-|S
|-5--8-----|I   |-5--8------------------4--5-|E
|           R   |                             C
|----------|S   |----------------------------|O
|--------8-|T   |--------10-9~--10------9-10-|N
|------9---|    |------9---------------------|D
|-7-10-----|    |-7-10-----------------------|
|----------|    |----------------------------|
|----------|    |----------------------------|

  Visit MetalTabs.com for more metal tablature

bottom separator

Contact Us | Privacy Policy | Disclaimer | Legal Notice
Copyright © 2001-2014 MetalTabs.com. All Rights Reserved.