top separator

Home

Forum

What's New

Submit a Tab

FAQ

Links

Contact Us

Link to Us

MetalTabs.com logo

Bands

0-9

A

B

C

D

E

F

G

H

I

J

K

L

M

N

O

P

Q

R

S

T

U

V

W

X

Y

Z

Search

What

Where
 

Sacrifice - "Pyrokinesis" Guitar Tab

Plain Text Version
More Sacrifice Tabs

Hits: 3386
Rated: 3.00 out of 5 (6 votes)
Updated: 2005-05-08 08:31:07

 

By:

Chris Rezendes

sendpm.gif

email.gif

Important note
This tab is available online because we obtained explicit permission from Sacrifice or their label.


#----------------------------------PLEASE NOTE---------------------------------#
#This file is the author's own work and represents their interpretation of the #
#song. You may only use this file for private study, scholarship, or research. #
#Unless specified otherwise, this is NOT an official tab from the band members.#
#------------------------------------------------------------------------------#

  Visit MetalTabs.com for more metal tablature
  
================================================================================
Song: Pyrokinesis
Artist: Sacrifice
Album: Forward to Termination (1987, Metal Blade)

Tabbed by Chris Rezendes (dudemcrude@yahoo.com)
Date started tab: 5/3/05
Date finished tab: 5/3/05

Tuning: Eb
Copy: First

Notation Key
~  : vibrato
^  : bend
.  : palm mute
r  : release
t  : trill
p  : pull-off
h  : hammer-on
x  : ghost note
/  : slide up
\  : slide down
>< : pinch harmonics

Comments: I got bored and was playing along with this.  I had half an hour to
kill and figured I'd jot it down while it was still fresh in my memory.  If you
notice anything wrong with this, I'd appreciate it if you let me know.  Thanks.
================================================================================

Riff 1A x1
e|-------------------------------|
B|-------------------------------|
G|-------------------------------|
D|--3-------3--------------------|
A|--1-------1-----------1--------|
E|----0-0-0---0-0-0-2-3---3-2-0--|
      . . .   . . .

e|-------------------------------------------|
B|-------------------------------------------|
G|-------------------------------------------|
D|--------------3-------3--------------------|
A|--------------1-------1-----------1--------|
E|--0-0-0-0-0-0---0-0-0---0-0-0-2-3---3-2-0--|
    . . . . . .   . . .   . . .

e|-------------------------------------------|
B|-------------------------------------------|
G|-------------------------------------------|
D|--------------3-------3--------------------|
A|--------------1-------1-----------1--------|
E|--0-0-0-0-0-0---0-0-0---------2-3---3-2-0--|
    . . . . . .   . . .

            TIME- 0:10

Riff 1B x4
e|-------------------------------------------|
B|-------------------------------------------|
G|-------------------------------------------|
D|--------------3-------3--------------------|
A|--------------1-------1-----------1--------|
E|--0-0-0-0-0-0---0-0-0---0-0-0-2-3---3-2-0--|
    . . . . . .   . . .   . . .

            TIME- 0:22

Riff 2 x4
e|----------------------------|------------------------|
B|----------------------------|------------------------|
G|--7--6--7--6--7--10--8------|--7--6--7--6--7--10--8--|
D|--7--6--7--6--7--10--8------|--7--6--7--6--7--10--8--|
A|--5--4--5--4--5---9--6------|--5--4--5--4--5---9--6--|
E|-----------------------0-0--|------------------------|
                         . .

Fill 1
e|-----------------|
B|-----------------|
G|--6---7---8---9--|
D|--6---7---8---9--|
A|--4---5---6---7--|
E|-----------------|

            TIME- 0:39

Riff 3A x3
e|-----------------------------------|
B|-----------------------------------|
G|--10\9---10\9---10\9---------------|
D|--10\9---10\9---10\9---------------|
A|---8\7----8\7----8\7---------------|
E|-------0------0------666666666666--|
         .      .      ............
         .      .      ............

Riff 3B x1
e|--------------------|
B|--------------------|
G|--10\9---10\9-------|
D|--10\9---10\9----8--|
A|---8\7----8\7----8--|
E|-------0------0--6--|
         .      .

            TIME- 0:47

Riff 2 x2
e|----------------------------|------------------------|
B|----------------------------|------------------------|
G|--7--6--7--6--7--10--8------|--7--6--7--6--7--10--8--|
D|--7--6--7--6--7--10--8------|--7--6--7--6--7--10--8--|
A|--5--4--5--4--5---9--6------|--5--4--5--4--5---9--6--|
E|-----------------------0-0--|------------------------|
                         . .

Fill 1
e|-----------------|
B|-----------------|
G|--6---7---8---9--|
D|--6---7---8---9--|
A|--4---5---6---7--|
E|-----------------|

            TIME- 0:57

Riff 3A x4
e|-----------------------------------|
B|-----------------------------------|
G|--10\9---10\9---10\9---------------|
D|--10\9---10\9---10\9---------------|
A|---8\7----8\7----8\7---------------|
E|-------0------0------666666666666--|
         .      .      ............

            TIME- 1:05

Fig. 1 x3
e|-----|-----|-----|---------|
B|-----|-----|-----|---------|
G|--9--|-----|--9--|--6---7--|
D|--9--|--8--|--9--|--6---7--|
A|--7--|--8--|--7--|--4---5--|
E|-----|--6--|-----|---------|

            TIME- 1:17

Riff 3A x3
e|-----------------------------------|
B|-----------------------------------|
G|--10\9---10\9---10\9---------------|
D|--10\9---10\9---10\9---------------|
A|---8\7----8\7----8\7---------------|
E|-------0------0------666666666666--|
         .      .      ............

Riff 3C x1
e|-------------------------------------|
B|-------------------------------------|
G|--10\9---10\9---10\9--------------9--|
D|--10\9---10\9---10\9--------------9--|
A|---8\7----8\7----8\7--------------7--|
E|-------0------0------666666666666----|
         .      .      ............

            TIME- 1:25

Riff 1C x1
e|-------------------------------------------|
B|-------------------------------------------|
G|-------------------------------------------|
D|--------------3-------3--------------------|
A|--------------1-------1-----------1--------|
E|--0-0-0-0-0-0---0-0-0---0-0-0-2-3---3-2-0--|
    . . . . . .   . . .   . . .

e|-------------------------------------------|
B|-------------------------------------------|
G|-------------------------------------------|
D|--------------3-------3--------------------|
A|--------------1-------1-----------1--------|
E|--0-0-0-0-0-0---0-0-0---------2-3---3-2-0--|
    . . . . . .   . . .

            TIME- 1:31

Riff 1B x4
e|-------------------------------------------|
B|-------------------------------------------|
G|-------------------------------------------|
D|--------------3-------3--------------------|
A|--------------1-------1-----------1--------|
E|--0-0-0-0-0-0---0-0-0---0-0-0-2-3---3-2-0--|
    . . . . . .   . . .   . . .

            TIME- 1:43

Riff 2 x2
e|----------------------------|------------------------|
B|----------------------------|------------------------|
G|--7--6--7--6--7--10--8------|--7--6--7--6--7--10--8--|
D|--7--6--7--6--7--10--8------|--7--6--7--6--7--10--8--|
A|--5--4--5--4--5---9--6------|--5--4--5--4--5---9--6--|
E|-----------------------0-0--|------------------------|
                         . .

Fill 1
e|-----------------|
B|-----------------|
G|--6---7---8---9--|
D|--6---7---8---9--|
A|--4---5---6---7--|
E|-----------------|

            TIME- 1:53

Riff 3A x3
e|-----------------------------------|
B|-----------------------------------|
G|--10\9---10\9---10\9---------------|
D|--10\9---10\9---10\9---------------|
A|---8\7----8\7----8\7---------------|
E|-------0------0------666666666666--|
         .      .      ............

Riff 3D x1
e|-------------------------------------|
B|-------------------------------------|
G|--10\9---10\9---10\9-----------------|
D|--10\9---10\9---10\9--------------2--|
A|---8\7----8\7----8\7--------------2--|
E|-------0------0------666666666666-0--|
         .      .      ............

            TIME- 2:01

  Visit MetalTabs.com for more metal tablature

bottom separator

Contact Us | Privacy Policy | Disclaimer | Legal Notice
Copyright © 2001-2014 MetalTabs.com. All Rights Reserved.