#----------------------------------PLEASE NOTE---------------------------------#
#This file is the author's own work and represents their interpretation of the #
#song. You may only use this file for private study, scholarship, or research. #
#Unless specified otherwise, this is NOT an official tab from the band members.#
#------------------------------------------------------------------------------#

  Visit MetalTabs.com for more metal tablature
  
Band: Bestial Devastation
Album: Bestial Devastation/Obscene  Split CD
Song: Armin Meiweis

Copyright (c)2005 Redrum Records
Version 1.0

Transcribed By: Bestial Devastation
Email: info@bestialdevastation.com


.  - palm mute           /  - slide up to
\  - slide down to       ~  - vibrato
h  - hammer on           b  - bend
p  - pull off            Suffixes for bend
t  - tap                 f  - full bend    h - half bend
ph - pinched harmonic    q  - quarter bend t - tap bend
*  - see comment         ^  - hold bend    r - release bend
x  - stuccatto           ~  - vibrato bend
,  - slight palm mute    () - ghost note, sustained note
"  - tremolo note        <> - trill

Tuning: B E A D G B

|--------------------------------|
|--------------------------------|
|--------------------------------| x 4
|-----------------------------2~~|
|--------2222------------2h3h4---|
|00002233----333300002233--------|

|--------------------------------|
|--------------------------------|
|--------------------------1-----| x 4
|------------------------13-32121|
|4\35\4-6\5-----4\3-5\4---------|
|2\1-3\2-4\3-0002\1-3\2---------|

|--------------------------------|
|--------------------------------|
|--------------------------------| x 4 (1st time Guitar 2; 2nd time Guitar 1)
|-----------------------------2~~|         3rd & 4th times both guitars
|--------2222------------2h3h4---|
|00002233----333300002233--------|

|--------------------------------|
|--------------------------------|
|-----------------------------2~~| x 2
|--------2222------------2h3h4---|
|00002233----333300002233--------|
|--------------------------------|

|--------------------------------|
|--------------------------------|
|--------------------------------| x 2
|-----------------------------2~~|
|--------2222------------2h3h4---|
|00002233----333300002233--------|

|----------------|
|----------------|
|----------------| x 4
|----------------|
|4\3-5\4-6\5-7\6-|
|2\1-3\2-4\3-5\4-|

END

  Visit MetalTabs.com for more metal tablature