top separator

Home

Forum

What's New

Submit a Tab

FAQ

Links

Contact Us

Link to Us

MetalTabs.com logo

Bands

0-9

A

B

C

D

E

F

G

H

I

J

K

L

M

N

O

P

Q

R

S

T

U

V

W

X

Y

Z

Search

What

Where
 

Lake of Tears - "Raistlin and the rose" Guitar Tab

Plain Text Version
More Lake of Tears Tabs

Hits: 4991
Updated: 2005-05-08 08:21:24

 

By:

Daniil

sendpm.gif

email.gif

Important note
This tab is available online because we obtained explicit permission from Lake of Tears or their label.


#----------------------------------PLEASE NOTE---------------------------------#
#This file is the author's own work and represents their interpretation of the #
#song. You may only use this file for private study, scholarship, or research. #
#Unless specified otherwise, this is NOT an official tab from the band members.#
#------------------------------------------------------------------------------#

  Visit MetalTabs.com for more metal tablature
  
LAKE OF TEARS-Raistlin And The Rose
A Crimson Cosmos-1997
Copyright Black Mark Records
Transcribed by Daniil Laletin
e-mail: dlaletin@mail.ru
version 1.0 January 2005

All corrections are welcome.

 " - tremolo
 / - slide down
 \ - slide up
 . - palm mute
 ~ - long sound
 x - rest
 p - pull off
 h - hammer on
 tr - trill
 () - ghost note, sustained note
 * - artificial harmonics
 b - bend

 Tuning from low to high: D G C F A D

 Note for keyboard parts:
 sometimes don't play notes in parentheses

================================

 All piano\keyborad parts is arranged
 for the guitar, and it's sounds very
 close to the original sound.

================================

 Intro
|-----------------|
|-----------------|
|--------5-4------|
|----2---------3--| Clean guitar
|-0----0-----0----|
|-----------------|



 Riff 1a
|------------------------------------------------------|
|------------------------------------------------------|
|------------------------------------------------------|
|-7-------------7---7-10-9-5-------------5-------------|
|-7-7-7-7-7-7-7-7-7-7--7-7-5-5-5-5-5-5-5-5-5-5-5-5-5-5-|
|-5-5-5-5-5-5-5-5-5--------3-3-3-3-3-3-3-3-3-3-3-3-3-3-|
    . . . . . .   .          . . . . . .   . . . . . .


 First keyboard part
|--------8-7-----------8-7----------7-5---|
|---10------------10------------8---------|
|-9----9-----9--9----9-----7--7---7-----7-|
|-----------------------------------------|
|-----------------------------------------|
|-----------------------------------------|


 Riff 1b
|--------------------------------------------------|
|--------------------------------------------------|
|--------------------------------------------------|
|-7-------------7---7-10-9-5-------------5---5-7-5-|
|-7-7-7-7-7-7-7-7-7-7--7-7-5-5-5-5-5-5-5-5-5-5-5-5-|
|-5-5-5-5-5-5-5-5-5--------3-3-3-3-3-3-3-3-3-------|
    . . . . . .   .          . . . . . .   .


 Second keyboard part
|--------8-7-----------8-7----------7-5----------7-5-----|
|---10------------10------------8------------8-----------|
|-9----9-----9--9----9-----7--7---7-----7--7---7-----(9)-|
|--------------------------------------------------------|
|--------------------------------------------------------|
|--------------------------------------------------------|


 Riff 1c
|-----------------------------------------------------|
|-----------------------------------------------------|
|-----------------------------------------------------|
|-3-------------3---3-2-3-2-------------2-------------|
|-3-3-3-3-3-3-3-3-3-3-2-3-2-2-2-2-2-2-2-2-2-2-2-2-2-2-|
|-1-1-1-1-1-1-1-1-1-------0-0-0-0-0-0-0-0-0-0-0-0-0-0-|
    . . . . . .   .         . . . . . .   . . . . . .



 Third keyborad part
|-------7-5----------7-5----------5-4----------5-4-----|
|---6------------6------------5------------5-----------|
|-5---5-----5--5---5-----4--4---4-----4--4---4-----(4)-|
|------------------------------------------------------|
|------------------------------------------------------|
|------------------------------------------------------|



 Riff 2                        x2
|--------------------------------|
|--------------------------------|
|---------5-4--------------------|
|-----2---------3~--7-5--3-3-2~--|
|-0~----0-----0------------------|
|--------------------------------|
|
|-------------------------------|
|-------------------------------|
|-------------------------------|
|-7-7-7-7-7---------------------|
|-7-7-7-7-7---------------------|
|-5-5-5-5-5-etc-----------------|
  . . . . .
                                  x2
|----------------------------------|
|----------------------------------|
|----------------------------------|
|--------------------3---3-3-2-----|
|-0--0-2-3-5~--5-5-5---5-------0~--|
|----------------------------------|
|
|----------------------------------|
|----------------------------------|
|----------7-7-7-7-7-7-7-----------|
|-7-7-7-7--7-7-7-7-7-7-7-7-7-7-7-7-|
|-7-7-7-7--5-5-5-5-5-5-5-7-7-7-7-7-|
|-5-5-5-5--. . . . . . .-5-5-5-5-5-|
  . . . .                . . . . .



 Outro a
|---------------------------------------------------|
|---------------------------------------------------|
|-9---10-9~----9---10-7~----7---9-7~----7---9-5~----|
|---7------------7------------5-----------5---------|
|---------------------------------------------------|
|---------------------------------------------------|


 Outro b
|--------------------------------|
|--------------------------------|
|-5---7-5~----4---5-4~---2-4~----|
|---3---------2-2----------------|
|--------------------------------|
|--------------------------------|

  Visit MetalTabs.com for more metal tablature

bottom separator

Contact Us | Privacy Policy | Disclaimer | Legal Notice
Copyright © 2001-2014 MetalTabs.com. All Rights Reserved.