#----------------------------------PLEASE NOTE---------------------------------#
#This file is the author's own work and represents their interpretation of the #
#song. You may only use this file for private study, scholarship, or research. #
#Unless specified otherwise, this is NOT an official tab from the band members.#
#------------------------------------------------------------------------------#

  Visit MetalTabs.com for more metal tablature
  
Band: Bestial Devastation
Album: Bestial Devastation/Obscene  Split CD
Song: Io Necrofilo

Copyright (c)2005 Redrum Records
Version 1.0

Transcribed By: Bestial Devastation
Email: info@bestialdevastation.com


.  - palm mute           /  - slide up to
\  - slide down to       ~  - vibrato
h  - hammer on           b  - bend
p  - pull off            Suffixes for bend
t  - tap                 f  - full bend    h - half bend
ph - pinched harmonic    q  - quarter bend t - tap bend
*  - see comment         ^  - hold bend    r - release bend
x  - stuccatto           ~  - vibrato bend
,  - slight palm mute    () - ghost note, sustained note
"  - tremolo note        <> - trill

Tuning: B E A D G B

|--------|
|--------|
|--------|
|--------| x 6
|2---5-6-|
|0---5-6-|
 .   . .

|--|
|--|
|--|
|--| x 4
|2-|
|0-|
 .
         ______________
                       |
|--------|             |
|--------|             |
|--------| x 6         |
|2-------|             |
|2-------|             |
|0---5566|             |
 .                     |  x 4
|--------|--------|    |
|--------|--------|    |
|--------|--------|    |
|5---4---|--------|    |
|3---2---|5---3---|    |
|--------|3---1---|    |
         ______________|

|--------|--------|--------|-------|
|--------|--------|--------|-------|
|--------|--------|--------|-------| x 4
|--------|22221111|--------|2233-2-|
|--------|--------|--------|-------|
|11112222|--------|11112222|-------|


         x   3                x  1*
|--------|--------|   |--------|
|--------|--------|   |--------|
|--------|--------|   |--------|
|--------|--------| + |--------| x 4
|2---4---|8---7---|   |-3ph----|
|2---4---|8---7---|   |0---04ph|
 .   .    .   .        .   .
*last time play it x 3

|--------|--------|--------|--------|--------|--------|
|--------|--------|--------|--------|--------|--------|
|--------|--------|--------|--------|--------|--------|
|--------|--------|--------|3-------|----2233|-2------|
|2---4---|--------|2---4---|3-------|--------|----2---|
|2---4---|11112222|2---4---|----1111|2222----|----2---|
 .   .             .   .    .                     .
|--------|--------|--------|--------|--------|
|--------|--------|--------|--------|--------|
|--------|--------|--------|--------|--------|
|--------|--------|----3---|--------|2233-2--|
|4-------|----2---|4---3---|--------|--------|
|4---1111|22222---|4-------|11112222|--------|
 .            .    .   .

         x   3                x  1*
|--------|--------|   |--------|
|--------|--------|   |--------|
|--------|--------|   |--------|
|--------|--------| + |--------| x 2
|2---4---|8---7---|   |-3ph----|
|2---4---|8---7---|   |0---04ph|
 .   .    .   .        .   .

|--|
|--|
|--|
|2-|
|2-|
|0-|
 .

|--|
|--|
|--|
|2-| x 4
|2-|
|0-|
 .
         ______________
                       |
|--------|             |
|--------|             |
|--------| x 6         |
|2-------|             |
|2-------|             |
|0---5566|             |
 .                     |  x 2
|--------|--------|    |
|--------|--------|    |
|--------|--------|    |
|5---4---|--------|    |
|3---2---|5---3---|    |
|--------|3---1---|    |
         ______________|

|--------|--------|
|--------|--------|
|--------|--------|
|5---4---|--------|  x 2
|3---2---|5---3---|
|--------|3---1---|

|--------|--------|
|--------|--------|
|--------|--------|
|--------|--------|
|2---4---|8---7---|
|2---4---|8---7---|

|--|
|--|
|--|
|2-|
|2-|
|0-|
 .

END

  Visit MetalTabs.com for more metal tablature