top separator

Home

Forum

What's New

Submit a Tab

FAQ

Links

Contact Us

Link to Us

MuSpy.com

MetalTabs.com logo

Bands

0-9

A

B

C

D

E

F

G

H

I

J

K

L

M

N

O

P

Q

R

S

T

U

V

W

X

Y

Z

Search

What

Where
 

Dying Fetus - "Bringing Back The Glory" Guitar Tab

Plain Text Version
More Dying Fetus Tabs

Hits: 3540
Rated: 4.64 out of 5 (11 votes)
Updated: 2005-05-08 08:19:08

 

By:

ThongPick

sendpm.gif

email.gif

Important note
This tab is available online because we obtained explicit permission from Dying Fetus or their label.


#----------------------------------PLEASE NOTE---------------------------------#
#This file is the author's own work and represents their interpretation of the #
#song. You may only use this file for private study, scholarship, or research. #
#Unless specified otherwise, this is NOT an official tab from the band members.#
#------------------------------------------------------------------------------#

  Visit MetalTabs.com for more metal tablature
  
Band:  Dying Fetus
Album: Grotesque Impalement
Song:  Bringing Back The Glory

Copyright (c)  Blunt Force Records (2000)
Version 1.0  April 30, 2005

Transcribed By: Nicolas Rouleau.
Email: insineratemail@hotmail.com

.  - palm mute           /  - slide up to
\  - slide down to       ~  - vibrato
h  - hammer on           b  - Bend
p  - pull off            Suffixes for bend
t  - tap                 f  - full bend    h - half bend
ph - pinched harmonic    q  - quarter bend t - tap bend
*  - see comment         ^  - Hold bend    r release bend
x  - Stuccatto           ~  - vibrato bend
,  - slight palm mute    () - ghost note, sustained note
"  - tremolo note        tr - Trill

Tunning C# F# B E G# C#

======== Read This ========

I know this song has already been tabbed before but I prefer to make my version.
The note in all riffs are spaced for numbers clarity.
Listen to the song to get the right tempo and riff order.


Riff 1A                        1B
|----------------------------||----------------------------|
|----------------------------||----------------------------|
|----------------------------||----------------------------|
|----8----7----10---9----7/8-||----8----7----10---9----8---|
|----6----5----8----7----5/6-||----6----5----8----7----6---|
|-00---00---00---00---00-----||-00---00---00---00---00-----|
  ..   ..   ..   ..   ..        ..   ..   ..   ..   ..

 1C
|---------------------------|
|---------------------------|
|---------------------------|
|----8----7----10---9----ph-|
|----6----5----8----7----6~-|
|-00---00---00---00---00----|
  ..   ..   ..   ..   ..

Riff 2A
|------------------------------------|
|------------------------------------|
|------------------------------------|
|-7-----5-8-----107---7-------------|
|-5-----3-6-----8--5---5---3222-3222-|
|-5-----3-6-----8--5---5---1000-1000-|
                           .... ....

 Riff 2B
|------------------------------------------|
|------------------------------------------|
|------------------------------------------|
|-777777-55-888888-1010-77777777-----------|
|-555555-33-666666-8-8--55555555-3222-3222-|
|-555555-33-666666-8-8--55555555-1000-1000-|
  ...... .. ...... . .  ........ .... ....


Riff 3A                            3B
|---------------------------------|--------------------------------|
|---------------------------------|--------------------------------|
|---------------------------------|--------------------------------|
|---------------------------------|--------------------------------|
|-----------5----------------6545-|-----------5----------------568-|
|-0000-0000---0000-0000-0000------|-0000-0000---0000-0000-0000-----|


Riff 4A                        4B
|-----------------------------|----------------------------|
|-----------------------------|----------------------------|
|-----------------------------|----------------------------|
|-----------------------------|----------------------------|
|-2--22-5/7---8\7---5---7---8-|-2--22-5/7---8\7---5---875--|
|-0--003/5-0-6\5-0-3-0-5-0-6-|-0--003/5-0-6\5-0-3-0-653--|
     ..     .     .   . . .        ..     .     .   . ..

  Visit MetalTabs.com for more metal tablature

bottom separator

Contact Us | Privacy Policy | Disclaimer | Legal Notice
Copyright © 2001-2014 MetalTabs.com. All Rights Reserved.