#----------------------------------PLEASE NOTE---------------------------------#
#This file is the author's own work and represents their interpretation of the #
#song. You may only use this file for private study, scholarship, or research. #
#Unless specified otherwise, this is NOT an official tab from the band members.#
#------------------------------------------------------------------------------#

  Visit MetalTabs.com for more metal tablature
  
Band:  Dying Fetus
Album: Grotesque Impalement
Song:  Tearing Inside The Womb

Copyright (c)  Blunt Force Records (2000)
Version 1.0  April 30, 2005

Transcribed By: Nicolas Rouleau.
Email: insineratemail@hotmail.com

.  - palm mute           /  - slide up to
\  - slide down to       ~  - vibrato
h  - hammer on           b  - Bend
p  - pull off            Suffixes for bend
t  - tap                 f  - full bend    h - half bend
ph - pinched harmonic    q  - quarter bend t - tap bend
*  - see comment         ^  - Hold bend    r release bend
x  - Stuccatto           ~  - vibrato bend
,  - slight palm mute    () - ghost note, sustained note
"  - tremolo note        tr - Trill

Tunning C# F# B E G# C#
Guitar1 = left channel
Guitar2 = right channel

======== Read This ========

The note in all riffs are spaced for numbers clarity.
Listen to the song to get the right tempo and riff order.


Riff 1
|------|
|------|
|------|
|------|
|-6--5-|
|-6--5-|


Riff 2A                     2B
|-------------------------||-----------------|
|-------------------------||-----------------|
|-------------------------||-----------------|
|-----------------------4-||-----------------|
|-2-----3-----2-----3-2-2-||-2-----3332------|
|-0-000-1-000-0-000-1-0---||-0-000-1110--21\-|
  . ... . ... . ... . .      . ... ....

Riff 3
|---------------------||--endind-1,2,3------||-ending-4-|
|---------------------||--------------------||----------|
|---------------------||--------------------||----------|
|-----------6666-7777-||--------------------||----------|
|------5555-----------||-2---22--222-2-222--||-2--------|
|-0000----------------||-0---00--000-0-000--||-0--------|
  ....                       .   ... . ..

Riff 4
|--------------||-----Ending-----|
|--------------||----------------|
|--------------||----------------|
|---------(4x)-||-------------9\-|
|-----1/7-7tr8-||-5---6---4---7\-|
|-001----------||-3-0-4-0-2-0----|
  ...             . . . . . .

Riff 5
|-----------------------------------------|
|-----------------------------------------|
|-----------------------------------------|
|----------------3333-2222----------------|
|------3333-2222-----------3333-2222-3333-|
|-0000------------------------------------|
  ....

|-Ending-1,2,3-||----------------Ending-4-----------------|
|--------------||-----------------------------------------|
|--------------||-----------------------------------------|
|-----5--------||-----------------------------------------|
|-4---3--3---4-||----------------2222----------------1111-|
|-2------1--2-||-2222-2222-2222------1111-1111-1111------|
                  .... .... .... .... .... .... .... ....

Riff 6
|----------------------------------||--Ending--|
|----------------------------------||----------|
|----------------------------------||----------|
|------4----------------------3----||----------|
|-2----2----3----5/6-4/6-2----1----||-33-6-5-4-|
|-0-00---00-1-00-3/4-2/4-0-00---00-||-11-4-3-2-|
    ..   ..   ..           ..   ..           .

Riff 7
|--------------------------------------------|
|--------------------------------------------|
|--------------------------------------------|
|------------------5425----------------------|
|-2-----5425-2-----3203-2-----5425-3333-3353-|
|-0--00-3203-0--00------0--00-3203-1111-1131-|
     .. ....    .. ....    .. .... .... ....

Riff 8
|----------------||---Ending----|
|----------------||-------------|
|----------------||-------------|
|----------------||-------------|
|-2------------4-||-3h4p3-2h3p2-|
|-0-00-3h4p3h4-2-||-------------|
    ..

Riff 9
|-----------------------||--Ending-1-3---||-----Ending-2-4-----|
|-----------------------||---------------||--------------------|
|-----------------------||---------------||--------------------|
|-----------------------||---------------||--------------------|
|---7-------------------||---7-----6--7--||---7-----6-66--7777-|
|-0---8-7-4-5-1-2p1h2p1-||-0---8-7-4--5--||-0---8-7-4-44--5555-|
                                                    . .

Riff 10 (This 2121 is -2-1-2-1- not -21-)
|-----------------------------------------|
|-----------------------------------------|
|-----------------------------------------|
|-----------------------------------------|
|------7777-------------------------------|
|-0000------8888-7777-4444-5555-1111-2121-|
  ....      .... .... .... .... .... ....

|---------------Ending-1-3----------------|
|-----------------------------------------|
|-----------------------------------------|
|-----------------------------------------|
|------7777-------------------------------|
|-0000------8888-7777-4444-4444-5555-5555-|
  ....      .... .... .... .... .... ....

|------------Ending-2-----------|
|-------------------------------|
|-------------------------------|
|-------------------------------|
|------7777--------------6----7-|
|-0000------8888-7777-4444-5555-|
  ....      .... .... .... ....

|-----------Gtr1-Ending-4-------||-----------Gtr2-Ending-4-------|
|-------------------------------||-------------------------------|
|-------------------------------||-------------------------------|
|-------------------------------||-------------------------------|
|------7777-----------6--6-7777-||------7777-----------6666-7777-|
|-0000------8888-7777-4--4-5555-||-0000------8888-7777-4444-5555-|
  ....      .... ....    .         ....      .... ....

Riff 11A
|-----------------------|------------------|
|-----------------------|------------------|
|-----------------------|------------------|
|---9-------------------|---9--------------|
|-2-7-10-9-6-7-3-4(4)/5-|-2-7-10-9-6---7---|
|-0----8-7-4-5-1-2(2)/3-|-0----8-7-4---5---|

Riff 11B
|-------------------|------------------|
|-------------------|------------------|
|-------------------|------------------|
|---9---------------|---9--------------|
|-2-7-10-9-6-7-3-45-|-2-7-10-9-6---7---|
|-0----8-7-4-5-1-23-|-0----8-7-4---5---|
                 ..

Riff 12
|----------||-------Ending--------|
|----------||---------------------|
|----------||---------------------|
|----------||---------------------|
|-2----222-||---------------------|
|-0----000-||-3333-3333-4444-4444-|
         .    .... .... .... ....

Riff 13
|----------------||---Ending--|
|----------------||-----------|
|----------------||-----------|
|----------------||-----------|
|-2--------------||----5----6-|
|-0----3333-4444-||-3333-4444-|
       .... ....    ...  ...

Song Ending
|----------|----------|
|----------|----------|
|----------|----------|
|----------|----------|
|-2----222-|--------6-|
|-0----000-|-333333-4-|
         .   ......

  Visit MetalTabs.com for more metal tablature