top separator

Home

Forum

What's New

Submit a Tab

FAQ

Links

Contact Us

Link to Us

MetalTabs.com logo

Bands

0-9

A

B

C

D

E

F

G

H

I

J

K

L

M

N

O

P

Q

R

S

T

U

V

W

X

Y

Z

Search

What

Where
 

Mithotyn - "The guardian" Guitar Tab

Plain Text Version
More Mithotyn Tabs

Hits: 2840
Rated: 5.00 out of 5 (1 vote)
Updated: 2007-06-04 03:08:44

 

By:

Daniil

sendpm.gif

email.gif

Important note
This tab is available online because we obtained explicit permission from Mithotyn or their label.


#----------------------------------PLEASE NOTE---------------------------------#
#This file is the author's own work and represents their interpretation of the #
#song. You may only use this file for private study, scholarship, or research. #
#Unless specified otherwise, this is NOT an official tab from the band members.#
#------------------------------------------------------------------------------#

  Visit MetalTabs.com for more metal tablature
  
THIS IS UPDATE OF MY PREVIOUS TAB
=================================

MITHOTYN-The Guardian
Gathered Around The Oaken Table-1999
Copyright Invasion Records
Transcribed by Daniil Laletin
e-mail: dlaletin@mail.ru
version 2.0 December 2006

All corrections are welcome.

 " - tremolo
 / - slide down
 \ - slide up
 . - palm mute
 ~ - long sound
 x - rest
 p - pull off
 h - hammer on
 tr - trill
 () - ghost note, sustained note
 * - artificial harmonics
 b - bend

 Tuning from low to high: D G C F A D

================================


 Acoustic intro

|---------------------------------|
|---------8-10-8------------------|
|-10-9-10--------10-9h10p9--7~----|
|---------------------------------|gtr 1
|---------------------------------|
|---------------------------------|
|
|-------0---------------0---------|
|-----6---6---6-------6---6---6---|
|---7-------7---7---7-------7---7-|
|-0---------------0---------------|gtr 2
|---------------------------------|
|---------------------------------|

|---------------------------------|
|----------8----------------------|
|-9-7-9-10---10-9-7h9p7-5~--7---9-|
|---------------------------------|gtr 1
|---------------------------------|
|---------------------------------|
|
|-------0---------------0---------|
|-----6---6---6-------6---6---6---|
|---5-------5---5---5-------5---5-|
|-0---------------0---------------|gtr 2
|---------------------------------|
|---------------------------------|

|---------------------------------|
|-------8108----------------------|
|-10910------10-9h10p9--7~--9--10-|
|---------------------------------|gtr 1
|---------------------------------|
|---------------------------------|
|
|-------0---------------0---------|
|-----6---6---6-------6---6---6---|
|---7-------7---7---7-------7---7-|
|-0---------------0---------------|gtr 2
|---------------------------------|
|---------------------------------|

|---------------------------------|
|-10~------8~-----11~------15~----|
|---------------------------------|
|---------------------------------|gtr 1
|---------------------------------|
|---------------------------------|
|
|-------0--------------0----------|
|---------------------------------|
|-----6------6-------6------6-----|
|-0-7------7---7-0-7------7---7---|gtr 2
|---------------------------------|
|---------------------------------|

|---------------------------------|
|-10--------11-10-10~-------15-10-|
|---------------------------------|
|---------------------------------|gtr 1
|---------------------------------|
|---------------------------------|
|
|-------0---------------0---------|
|-----6---6---6-------6---6---6---|
|---7-------7---7---7-------7---7-|
|-0---------------0---------------|gtr 2
|---------------------------------|
|---------------------------------|

|---------------------------------|
|-8~---------10-8-8~--------11-15-|
|---------------------------------|
|---------------------------------|gtr 1
|---------------------------------|
|---------------------------------|
|
|-------0---------------0---------|
|-----6---6---6-------6---6---6---|
|---5-------5---5---5-------5---5-|
|-0---------------0---------------|gtr 2
|---------------------------------|
|---------------------------------|

|-10~-------11-10-10~-------15-10-|
|---------------------------------|
|---------------------------------|
|---------------------------------|gtr 1
|---------------------------------|
|---------------------------------|
|
|-------0---------------0---------|
|-----6---6---6-------6---6---6---|
|---7-------7---7---7-------7---7-|
|-0---------------0---------------|gtr 2
|---------------------------------|
|---------------------------------|

|-------------------------------8~|
|-8~-8h10p8-6~-6h8p6-5~-5h6p5-3~--|
|---------------------------------|
|---------------------------------|gtr 1
|---------------------------------|
|---------------------------------|
|
|-------0-------------------------|
|---------------------------------|
|-----6-------6------6--------5---|
|-0-7-------7---7----7--------5---|gtr 2
|---------------------------------|
|---------------------------------|




 Riff 1                                                           x2
|-------------------------------------------------------------------|
|-------------------------------------------------------------------|
|-10-10-10-10-10-10-----------------------------------------9--9--9-|
|-12-12-12-12-12-12-7-7-7-7-7-7--8--8--8--8--8--8-10-10-10-10-10-10-|gtr 1
|--.--.--.--.--.--.-8-8-8-8-8-8-10-10-10-10-10-10-10-10-10--.--.--.-|
|-------------------.-.-.-.-.-.--.--.--.--.--.--.--.--.--.----------|
|
|-------------------------------------------------------------------|
|-------------------------------------------------------------------|
|-------------------------------------------------------------------|
|-------------------------------------------------------------------|gtr 2
|--5--5--5--5--5--5-0-0-0-0-0-0--1--1--1--1--1--1--3--3--3--7--7--7-|
|--.--.--.--.--.--.-.-.-.-.-.-.--.--.--.--.--.--.--.--.--.--.--.--.-|

|-------------------------------------------------------------------|
|-------------------------------------------------------------------|
|-10-10-10-10-10-10-------------------------------------------------|
|-12-12-12-12-12-12-7-7-7-7-7-7--8--8--8--8--8--8-10-10-10--8--8--8-|gtr 1
|--.--.--.--.--.--.-8-8-8-8-8-8-10-10-10-10-10-10-10-10-10-10-10-10-|
|-------------------.-.-.-.-.-.--.--.--.--.--.--.--.--.--.--.--.--.-|
|
|-------------------------------------------------------------------|
|-------------------------------------------------------------------|
|-------------------------------------------------------------------|
|-------------------------------------------------------------------|gtr 2
|--5--5--5--5--5--5-0-0-0-0-0-0--1--1--1--1--1--1--3--3--3--1--1--1-|
|--.--.--.--.--.--.-.-.-.-.-.-.--.--.--.--.--.--.--.--.--.--.--.--.-|

|-------------------------------------------|
|-------------------------------------------|
|-------------------------------------------|
|-7-7-7-7-7-7-5-5-5-5-5-5-7-777-7-777-7-----|gtr 1
|-8-8-8-8-8-8-7-7-7-7-7-7-0-000-0-000-0--7--|
|-.-.-.-.-.-.-.-.-.-.-.-.----------------5--|
|
|-------------------------------------------|
|-------------------------------------------|
|-------------------------------------------|
|-------------------------7-777-7-777-7-----|gtr 2
|-0-0-0-0-0-0-------------0-000-0-000-0--7--|
|-.-.-.-.-.-.-3-3-3-3-3-3----------------5--|
              . . . . . .


 Riff 2
|-------------------------------------------------------------|
|-------------------------------------------------------------|
|-10"-----------------------9"--10"-----------------------9"--|
|-12"----7"-----8"----10"--10"--12"----7"-----8"----10"--10"--|gtr 1
|--------8"----10"----10"--------------8"----10"----10"-------|
|-------------------------------------------------------------|
|
|-------------------------------------------------------------|
|-------------------------------------------------------------|
|-10"-----------------------9"--10"-----------------------9"--|
|-12"----7"-----8"----10"--10"--12"----7"-----8"----10"--10"--|gtr 2
|--------8"----10"----10"--------------8"----10"----10"-------|
|-------------------------------------------------------------|

|-------------------------------------------------------------|
|-------------------------------------------------------------|
|-10"---------------------------------------------------------|
|-12"----7"-----8"----10"---8"--7"----5"----7-777-7-777-7-----|gtr 1
|--------8"----10"----10"--10"--8"----7"----0-000-0-000-0--7--|
|----------------------------------------------------------5--|
|
|-------------------------------------------------------------|
|-------------------------------------------------------------|
|-10"---------------------------------------------------------|
|-12"----7"-----8"----10"---8"--7"----5"----7-777-7-777-7-----|gtr 2
|--------8"----10"----10"--10"--8"----7"----0-000-0-000-0--7--|
|----------------------------------------------------------5--|



 Riff 3
|-----------------------------------------------------|
|-3"----6"----5"--------------------3"----6"---5"6"8"-|
|-----------------------------------------------------|
|-----------------------------------------------------|gtr 1
|-----------------------------------------------------|
|-----------------------------------------------------|
|
|-----------------------------------------------------|
|-----------------------------------------------------|
|-------7"--------------------------------7"-------5"-|
|-------------7"--------7-5---------------------------|gtr 2
|-5"----------------7-8-----7-8-7-4-5"----------------|
|-----------------------------------------------------|

|-----------------------------------------------|
|-6"--5"--6"----5"6"8"----6"8"10"----8"6"10"--\-|
|-----------------------------------------------|
|-----------------------------------------------|gtr 1
|-----------------------------------------------|
|-----------------------------------------------|
|
|-----------------------------------------------|
|-----------------------------------------------|
|-------------------5"------5"-9-----7----------|
|-----7"--8"----7"8"------8"--------------------|gtr 2
|-----------------------------------------------|
|-----------------------------------------------|



 Riff 4
|------------------------------------------------------------|
|------------------------------------------------------------|
|------------------------------------------------------------|
|-0"----2h3-5"----0"----2h3-5"--7"--0"----2h3-5"----3"5"7"---|gtr 1
|------------------------------------------------------------|
|------------------------------------------------------------|
|
|------------------------------------------------------------|
|------------------------------------------------------------|
|------------------------------------------------------------|
|-0"--------8"----0"--------8"-10"--0"--------8"----7"5"-----|gtr 2
|-------------------------------------------------------8"---|
|------------------------------------------------------------|

|------------------------------|
|------------------------------|
|------------------------------|
|-5"7"8"7"5"3"5"7"5"----2"3"2"-|gtr 1
|------------------------------|
|------------------------------|
|
|------------------------------|
|------------------------------|
|------------------------------|
|-5"7"5"----3"----5"----2------|gtr 2
|-----------------------0------|
|------------------------------|



 Riff 5
|------------------------------------------------------------------------|
|------------------------------------------------------------------------|
|------------------------------------------------------------------------|
|-0"-------5"-----0"-------5"-7"--0"-------7"-------5"-------7"----2-3-2-|
|------------------------------------------------------------------------|
|------------------------------------------------------------------------|
|gtr 1
|------------------------------------------------------------------------|
|-3~-3-5-6-8~-8~--3~-3-5-6-8~-8~--3~-3-5-6----3-5-6----3-5-6---3-5-8-6-5-|
|------------------------------------------5~-------3~-------5-----------|
|------------------------------------------------------------------------|
|------------------------------------------------------------------------|
|------------------------------------------------------------------------|
 gtr 2

|---------------------------------------------------------------------------|
|---------------------------------------------------------------------------|
|---------------------------------------------------------------------------|
|-0"-------5"-----0"-------5"-7"--0"-------7"-------5"-------7--5--3--2-----|
|---------------------------------------------------------------------------|
|---------------------------------------------------------------------------|
|gtr 1
|---------------------------------------------------------------------------|
|-3~-3-5-6-8~-8~--3~-3-5-6-8~-8~--3~-3-5-6----3-5-6----3-5-6----------------|
|------------------------------------------5~-------3~-------2--0-----------|
|------------------------------------------------------------------3--2h3p2-|
|---------------------------------------------------------------------------|
|---------------------------------------------------------------------------|
 gtr 2

|-------------------------------|
|-------------------------------|
|-10"-----------------------9"--|
|-12"----7"-----8"----10"--10"--|gtr 1
|--------8"----10"----10"-------|
|-------------------------------|
|
|-------------------------------|
|-------------------------------|
|-------------------------------|
|-0~~~~--------(0)----------2---|gtr 2
|----------------------3----3---|
|----------------------3--------|



 First solo under riff 2
|------------------------------------------------------|
|------------------------------------------------------|
|-/10~--9-7-9-10-7-9-----/10~--9-7-9-10-12-10~--12-9~--|
|--------------------7~--------------------------------|
|------------------------------------------------------|
|------------------------------------------------------|

|---------------------------------------------------------------|
|---------------------------------------------------------------|
|-/14~--12-10-12-14-10-12-9~--/14-12-10-12-10-9-10-9-7-9-10-9-7-|
|---------------------------------------------------------------|
|---------------------------------------------------------------|
|---------------------------------------------------------------|

|-------------------------------------------------------|
|---x4------x4--------x4--------x2----------------------|
|-10-9-7--12-10-9--14-12-10--15-14-12--14-12-10-12-10-9-|
|-------------------------------------------------------|
|-------------------------------------------------------|
|-------------------------------------------------------|

|----------------------------------------------------------|
|---x4-------x4-------x2--------x2-------------------------|
|-10-9-7--12-10-9--14-12-10--12-10-9--10-9-7-10-9-7-9~--7~-|
|----------------------------------------------------------|
|----------------------------------------------------------|
|----------------------------------------------------------|



 Riff 6
|--------------------------------------------------------|
|-6~--8-10~-8-6-8~---------6~--10-8-10~-/11-8~-----------|
|-7~--9-10~-9-7-9~---9-9~--7~--10-9-10~-/12-9~--9h10p9~--|
|-------------------10-7~--------------------------------|gtr 1
|--------------------------------------------------------|
|--------------------------------------------------------|
|
|--------------------------------------------------------|
|--------------------------------------------------------|
|--------------------------------------------------------|
|-7------------------------------------------------------|gtr 2
|-5-------------7----------8---8-8--101010--7---7--7-----|
|---------------5----------6---6-6---8-8-8--5---5--5-----|

|---------------------------------------------------------|
|-/13~-11-10~-11-13-11~-8~------/10~-8-6~-8-10-8-/10-10~--|
|-/14~-12-10~-12-14-12~-9~--9~--/10~-9-7~-9-10-9----------|
|--------------------------10~----------------------------|gtr 1
|---------------------------------------------------------|
|---------------------------------------------------------|
|
|---------------------------------------------------------|
|---------------------------------------------------------|
|---------------------------------------------------------|
|--10-----10--10-----5---5---5----7----7---7--------------|gtr 2
|---8------8---8-----3---3---3----5----5---5---7---7--7---|
|----------------------------------------------5---5--5---|

|--------------------------------------------~--~~--|
|-/11~-10-8-10h11p10----10-8-10~-10h11p10-8~--------|
|--------------------10------10~-10h12p10-9~-6-7----|
|---------------------------------------------------|gtr 1
|---------------------------------------------------|
|---------------------------------------------------|
|
|---------------------------------------------------|
|---------------------------------------------------|
|---------------------------------------------------|
|--------------------------------------------6-7----|gtr 2
|---5----7---7-----3-----3----3-----5----7---4-5----|
|---3----5---5-----1-----1----1-----3----5----------|



 Riff 7
|------------------------------------------------|
|------------------------------------------------|
|------------------------------------------------|
|-7"-----8--7"-----8--7"-------------------------|gtr 1
|-5"----10--5"----10--5"------8"----7/8\7-7"---5-|
|-----------------------------6"----5/6\5-5"---3-|
|
|------------------------------------------------|
|------------------------------------------------|
|------------------------------------------------|
|--------8---------8-----------------------------|gtr 2
|-8"-7"-10--8"-7"-10--8"--7"--5"---5-7-8-7h8p7-5-|
|------------------------------------------------|



 Second solo under riff 2
|------------------------------------------------|
|-------10-8-10~--11-10-11~--10-8-10-8----8------|
|-/10~---------------------------------10---10-9-|
|------------------------------------------------|
|------------------------------------------------|
|------------------------------------------------|

|---------------------------------------|
|---------------------------------------|
|-/10~--9-7----------7~--/10--/12~-12---|
|-----------7~--8-10--------------------|
|---------------------------------------|
|---------------------------------------|

|------------------------------10-8-10-12-10-12-/13~--10-10-|
|-------10-8-10~--11-10-11~---------------------------------|
|-/10~------------------------------------------------------|
|-----------------------------------------------------------|
|-----------------------------------------------------------|
|-----------------------------------------------------------|

|---------------------|
|-/11~-14-10-8-11--10-|
|---------------------|
|---------------------|
|---------------------|
|---------------------|



 And the ending riff
|---------------------|
|---------------------|
|---------------------|
|-7"-----8--7"-----8--|gtr 1
|-5"----10--5"----10--|
|---------------------|
|
|---------------------|
|---------------------|
|---------------------|
|--------8---------8--|gtr 2
|-8"-7"-10--8"-7"-10--|
|---------------------|

  Visit MetalTabs.com for more metal tablature

bottom separator

Contact Us | Privacy Policy | Disclaimer | Legal Notice
Copyright © 2001-2014 MetalTabs.com. All Rights Reserved.