top separator

Home

Forum

What's New

Submit a Tab

FAQ

Links

Contact Us

Link to Us

MuSpy.com

MetalTabs.com logo

Bands

0-9

A

B

C

D

E

F

G

H

I

J

K

L

M

N

O

P

Q

R

S

T

U

V

W

X

Y

Z

Search

What

Where
 

Fleshless - "Disconnected" Guitar Tab

Plain Text Version
More Fleshless Tabs

Hits: 3420
Rated: 4.00 out of 5 (1 vote)
Updated: 2005-05-07 12:21:28

 

By:

Daniil

sendpm.gif

email.gif

Important note
This tab is available online because we obtained explicit permission from Fleshless or their label.


#----------------------------------PLEASE NOTE---------------------------------#
#This file is the author's own work and represents their interpretation of the #
#song. You may only use this file for private study, scholarship, or research. #
#Unless specified otherwise, this is NOT an official tab from the band members.#
#------------------------------------------------------------------------------#

  Visit MetalTabs.com for more metal tablature
  
FLESHLESS-Disconnected
Sensual Death Immitation-2003
Copyright
Transcribed by Daniil Laletin
e-mail: dlaletin@mail.ru
version 1.0 February 2005

All corrections are welcome.

 " - tremolo
 / - slide down
 \ - slide up
 . - palm mute
 ~ - long sound
 x - rest
 p - pull off
 h - hammer on
 tr - trill
 () - ghost note, sustained note
 * - artificial harmonics
 b - bend

Tuning from low to high: B E A D F# B


================================

 Intro
|-------|
|-------|
|-------|
|-------|
|-5-4-3-|
|-3-2-1-|
  . . .


 Riff 1
|---------------------------------------------------|
|---------------------------------------------------|
|---------------------------------------------------|
|---------------------------------------------------|
|------------------------2------------------------1-|
|-0-0000-0-0-0-0-000-2-3---0-0000-0-0-0-0-000-2-3---|
  .      . . . .     . . . .      . . . .     . . .
|-----------------------------------------------|
|-----------------------------------------------|
|-----------------------------------------------|
|--------------------------------5-4------------|
|------------------------2-------3-2-5-3--2-3-5-|
|-0-0000-0-0-0-0-000-2-3---0-000-----3-1--0-1-3-|
  .      . . . .     . . . .              .


 Riff 2
|-----------------------------------------------|
|-----------------------------------------------|
|-----------------------------------------------|
|-----------------------------------------------|
|------5\3----7\5----8-7-5------5\3----7\5/7/8--|
|-0000-3\1-00-5\3-00-6-5-3-0000-3\1-00-5\3/5/6--|

|-------------------------------------------------|
|-------------------------------------------------|
|-------------------------------------------------|
|-------------------------------------------------|
|------5\3----7\5----8-7-5------------------8-7-5-|
|-0000-3\1-00-5\3-00-6-5-3-5555-5-555-6-666-6-5-3-|
                                . ... . ...


 Riff 3
|------------------------|
|------------------------|
|------------------------|
|------------------------|
|-2-----5----5-6-5-6-5-3-|
|-0-----3----3-4-3-4-3-1-|
             . . . . . .


 Riff 4
|-------0----------------------------0----------------------|
|-------5----------------------------5----------------------|
|-------5----------------------------5----------------------|
|------------------------------------------5----------------|
|-2-----------5----5-6-5-6-5-3-2-----------3----5-6-5-6-5-3-|
|-0-----------3----3-4-3-4-3-1-0-----------3----3-4-3-4-3-1-|
                   . . . . . .                  . . . . . .



 Riff 5
|-------------------------------------------|
|--------5------5------5--------------------|
|--------4------4------4--------------------|
|--------2------2------2--------------------|
|-2-0-00---0-00---0-00---7-6----5-6-5-6-5-3-|
|-0-.------.------.------5-4----3-4-3-4-3-1-|
                                . . . . . .


 Riff 6
|------------------------------------------------------------------------|
|------------------------------------------------------------------------|
|------------------------------------------------------------------------|
|--------------10\9----------10\9-8/9--------------10\9------------------|
|-887788778877--8\7-88778877--8\7-6/7-887788778877--8\7-10\9-8/9-6/7-4/5-|
|--------------------------------------------------------8\7-6/7-4/5-2/3-|



 Riff 7 - with variations
|------------------------------------------------------------|
|------------------------------------------------------------|
|------------------------------------------------------------|
|----------------------------------------------------------5-|
|-2----------------4---------5--2----------------4---------3-|
|-0-000-0-0-013431-2-222-2-2-3--0-000-0-0-013431-2-222-2-2-3-|
    ... . . ......   ... . .      ... . . ......   ... . .



 Ending riff
|---------------------------------------------------|
|---------------------------------------------------|
|---------------------------------------------------|
|---------------------------------------------------|
|------------------------2------------------------1-|
|-0-0000-0-0-0-0-000-2-3---0-0000-0-0-0-0-000-2-3---|
  .      . . . .     . . . .      . . . .     . . .
                                 |       slow here
|--------------------------------|--------------------------|
|--------------------------------|--------------------------|
|--------------------------------|--------------------------|
|--------------------------------|-5--4---------------------|
|------------------------2-------|-3--2--5--3--2--3--5--2---|
|-0-0000-0-0-0-0-000-2-3---0-000-|-------3--1--0--1--3--0---|
  .      . . . .     . . . .

 End.

  Visit MetalTabs.com for more metal tablature

bottom separator

Contact Us | Privacy Policy | Disclaimer | Legal Notice
Copyright © 2001-2014 MetalTabs.com. All Rights Reserved.