top separator

Home

Forum

What's New

Submit a Tab

FAQ

Links

Contact Us

Link to Us

MuSpy.com

MetalTabs.com logo

Bands

0-9

A

B

C

D

E

F

G

H

I

J

K

L

M

N

O

P

Q

R

S

T

U

V

W

X

Y

Z

Search

What

Where
 

Fleshcrawl - "Beneath A Dying Sun" Guitar Tab

Plain Text Version
More Fleshcrawl Tabs

Hits: 3928
Updated: 2005-05-07 12:21:22

 

By:

Daniil

sendpm.gif

email.gif

Important note
This tab is available online because we obtained explicit permission from Fleshcrawl or their label.


#----------------------------------PLEASE NOTE---------------------------------#
#This file is the author's own work and represents their interpretation of the #
#song. You may only use this file for private study, scholarship, or research. #
#Unless specified otherwise, this is NOT an official tab from the band members.#
#------------------------------------------------------------------------------#

  Visit MetalTabs.com for more metal tablature
  
FLESHCRAWL-Beneath A Dying Sun
Made Of Flesh-2004
Copyright
Transcribed by Daniil Laletin
e-mail: dlaletin@mail.ru
version 1.0 February 2005

All corrections are welcome.

 " - tremolo
 / - slide down
 \ - slide up
 . - palm mute
 ~ - long sound
 x - rest
 p - pull off
 h - hammer on
 tr - trill
 () - ghost note, sustained note
 * - artificial harmonics
 b - bend

Tuning from low to high: B E A D F# B


================================

 Intro
|-------------------------------|
|-------------------------------|
|-------------------------------|
|-2------2x-/5-4-2-/7-5h7p5p4h5-|gtr 1
|-2------2x---------------------|
|-0------0x---------------------|
|
|-------------------------------|
|-------------------------------|
|-------------------------------|
|-2------2x---------------------|gtr 2
|-2------2x---------------------|
|-0------0x---------------------|



 Riff 1
|-------------------------------------------------------|
|-------------------------------------------------------|
|-------------------------------------------------------|
|------------4-------------------------9--5-5-5-5-7-7-7-|gtr 1
|-22-5-22-22-2--5-7---5-4-3-22-5-22-22-7--3-3-3-3-5-5-5-|
|-00-3-00-00----3-5---3-2-1-00-3-00-00------------------|
|
|-------------------------------------------------------|
|-------------------------------------------------------|
|-------------------------------------------------------|
|------------4-------------------------9--5-5-5-5-7-7-7-|gtr 2
|-22-5-22-22-2--5-7---5-4-3-22-5-22-22-7--3-3-3-3-5-5-5-|
|-00-3-00-00----3-5---3-2-1-00-3-00-00------------------|



 Riff 2a
|-----------------------------------------------------------------|
|-----------------------------------------------------------------|
|-----------------------------------------------------------------|
|-----5----5-4----5-4--------4-----5----5-4----5-4-2-/7-5h7p5p4h5-|gtr 1
|-7-7---3------2---------5-0---7-7---3------2---------------------|
|-.-.-----------------3--------.-.--------------------------------|
|
|-----------------------------------------------------------------|
|-----------------------------------------------------------------|
|-----------------------------------------------------------------|
|-------5------4---------------------5------4-------2-4-4-5-7-7-7-|gtr 2
|-------3------2------5--------------3------2-------0-2-2-3-5-5-5-|
|-0000-----0-0----0-0-3--------0000-----0-0-----------------------|


 Riff 2b
|-----------------------------------------------------------------|
|-----------------------------------------------------------------|
|---4----------------------------4--------------------------------|
|-----5----5-4----5-4--------4-----5----5-4----5-4-2-/7-5h7p5p4h5-|gtr 1
|-7-----3------2---------5-0---7-----3------2---------------------|
|-.-.-----------------3--------.-.--------------------------------|
|
|-----------------------------------------------------------------|
|-----------------------------------------------------------------|
|-----------------------------------------------------------------|
|-------5------4---------------------5------4-------2-4-4-5-7-7-7-|gtr 2
|-------3------2------5--------------3------2-------0-2-2-3-5-5-5-|
|-0000-----0-0----0-0-3--------0000-----0-0-----------------------|


 Riff 3
|-----------------------------------------------------------------|
|-----------------------------------------------------------------|
|-----------------------------------------------------------------|
|-----5-----5---5-----4-----4---4-----2-----2---2-----4-----4---4-|gtr 1
|---2-.---2-.---.---2-.---2-.---.---2-.---2-.---.---2-.---2-.---.-|
|-0-.---0-.---0---0-.---0-.---0---0-.---0-.---0---0-.---0-.---0---|
| .     .     .   .     .     .   .     .     .   .     .     .
|-----------------------------------------------------------------|
|-----------------------------------------------------------------|
|-----------------------------------------------------------------|
|-5"--------------4"--------------2"------------------------------|gtr 2
|-------------------------------------------------2"--------------|
|-----------------------------------------------------------------|

|-----------------------------------------------------------------|
|-----------------------------------------------------------------|
|-----------------------------------------------------------------|
|-----5-----5---5-----4-----4---4-----2-----2---2-----4-----4---4-|gtr 1
|---2-.---2-.---.---2-.---2-.---.---2-.---2-.---.---2-.---2-.---.-|
|-0-.---0-.---0---0-.---0-.---0---0-.---0-.---0---0-.---0-.---0---|
| .     .     .   .     .     .   .     .     .   .     .     .
|-----------------------------------------------------------------|
|-----------------------------------------------------------------|
|-----------------------------------------------------------------|
|-5"--------------4"--------------2"--------------4"--------------|gtr 2
|-----------------------------------------------------------------|
|-----------------------------------------------------------------|



 Fill 1
|-----------------------------------------------------------|
|-----------------------------------------------------------|
|-----------------------------------------------------------|
|----------------------4-5-7--------------------------------|gtr 1
|-2-2-5-2-2--2-5-5-2-5-2-3-5-2-2-5-2-2--/7~-8-7h8p7-7\5-----|
|-0-0-3-0-0--0-3-3-0-3-------0-0-3-0-0------------------5-6-|
|       . .  .                     . .
|-----------------------------------------------------------|
|-----------------------------------------------------------|
|-----------------------------------------------------------|
|-----------------------------------------------------------|gtr 2
|------------------------------------2--/7~-8-7h8p7-7\5-----|
|------------------------------------0------------------5-6-|
                                     .


 Riff 4
|-----------------------------------------------------------|
|-----------------------------------------------------------|
|-----------------------------------------------------------|
|----------------------4-5-7--------------------------------|gtr 1
|-2-2-5-2-2--2-5-5-2-5-2-3-5-2-2-5-2-2--/7~-8-7h8p7-7\5-----|
|-0-0-3-0-0--0-3-3-0-3-------0-0-3-0-0------------------5-6-|
|       . .  .                     . .
|-----------------------------------------------------------|
|-----------------------------------------------------------|
|-----------------------------------------------------------|
|----------------------4-5-7--------------------------------|gtr 2
|-2-2-5-2-2--2-5-5-2-5-2-3-5-2-2-5-2-2--/7~-8-7h8p7-7\5-----|
|-0-0-3-0-0--0-3-3-0-3-------0-0-3-0-0------------------5-6-|
        . .  .                     . .


 Riff 5
|---------------------------------------------------------|
|---------------------------------------------------------|
|---------------------------------------------------------|
|---------------------------------------------------------|gtr 1
|-2-----/7~-8-7h8p7p5-7\5-----5-----/7~-8-7h8p7p5-7\5-----|
|-0~----------------------5-6-3~----------------------5-6-|
|
|---------------------------------------------------------|
|---------------------------------------------------------|
|---------------------------------------------------------|
|---------------------------------------------------------|gtr 2
|-2-----/7~-8-7h8p7p5-7\5-----5-----/7~-8-7h8p7p5-7\5-----|
|-0~----------------------5-6-3~----------------------5-6-|

|----------------------------------------------------------|
|----------------------------------------------------------|
|----------------------------------------------------------|
|----------------------------------------------------------|gtr 1
|-2-----/7~-8-7h8p7p5-7\5-----5x-578-/7~-8-7h8p7p5-7\5-----|
|-0~----------------------5-6-3x-356-------------------5-6-|
|
|----------------------------------------------------------|
|----------------------------------------------------------|
|----------------------------------------------------------|
|----------------------------------------------------------|gtr 2
|-2-----/7~-8-7h8p7p5-7\5-----5x-578-/7~-8-7h8p7p5-7\5-----|
|-0~----------------------5-6-3x-356-------------------5-6-|



 Riff 6a
|-----------------------------------------------------------------|
|-----------------------------------------------------------------|
|---4----------------------------4--------------------------------|
|-----5----5-4----5-4--------4-----5----5-4----5-4-2-/7-5h7p5p4h5-|gtr 1
|-7-----3------2---------5-0---7-----3------2---------------------|
|---------------------3-------------------------------------------|
|
|-----------------------------------------------------------------|
|-----------------------------------------------------------------|
|---4----------------------------4--------------------------------|
|-----5----5-4----5-4--------4-----5----5-4----5-4-2-/7-5h7p5p4h5-|gtr 2
|-7-----3------2---------5-0---7-----3------2---------------------|
|---------------------3-------------------------------------------|


 Riff 6b
|----------------------------------------------------------------|
|----------------------------------------------------------------|
|---2----------------------------2-------------------------------|
|-----3----3-2----3-2--------2-----3----3-2----3-2-0-5-3h5p3p2h3-|gtr 1
|-5-----1------0---------3-----5-----1------0--------------------|
|---------------------1----3-------------------------------------|
|
|----------------------------------------------------------------|
|----------------------------------------------------------------|
|---2----------------------------2-------------------------------|
|-----3----3-2----3-2--------2-----3----3-2----3-2-0-5-3h5p3p2h3-|gtr 2
|-5-----1------0---------3-----5-----1------0--------------------|
|---------------------1----3-------------------------------------|


 Ending Riff
|----------------------------------------------------------------|
|----------------------------------------------------------------|
|---2----------------------------2-----------------------------*-|
|-----3----3-2----3-2--------2-----3----3-2----3-2-0-5-3h5p3p2-2-|gtr 1
|-5-----1------0---------3-----5-----1------0--------------------|
|---------------------1----3-------------------------------------|
|
|--------------------------------------------------------------*-|
|--------------------------------------------------------------5-|
|---2----------------------------2-------------------------------|
|-----3----3-2----3-2--------2-----3----3-2----3-2-0-5-3h5p3p2---|gtr 2
|-5-----1------0---------3-----5-----1------0--------------------|
|---------------------1----3-------------------------------------|

  Visit MetalTabs.com for more metal tablature

bottom separator

Contact Us | Privacy Policy | Disclaimer | Legal Notice
Copyright © 2001-2014 MetalTabs.com. All Rights Reserved.