top separator

Home

Forum

What's New

Submit a Tab

FAQ

Links

Contact Us

Link to Us

MetalTabs.com logo

Bands

0-9

A

B

C

D

E

F

G

H

I

J

K

L

M

N

O

P

Q

R

S

T

U

V

W

X

Y

Z

Search

What

Where
 

At The Gates - "The Scar" Guitar Tab

Plain Text Version
More At The Gates Tabs

Hits: 3633
Rated: 5.00 out of 5 (7 votes)
Updated: 2005-05-07 12:21:14

 

By:

Daniil

sendpm.gif

email.gif

Important note
This tab is available online because we obtained explicit permission from At The Gates or their label.


#----------------------------------PLEASE NOTE---------------------------------#
#This file is the author's own work and represents their interpretation of the #
#song. You may only use this file for private study, scholarship, or research. #
#Unless specified otherwise, this is NOT an official tab from the band members.#
#------------------------------------------------------------------------------#

  Visit MetalTabs.com for more metal tablature
  
AT THE GATES-The Scar
The Red In The Sky Is Ours-1992
Copyright Peaceville Records
Transcribed by Daniil Laletin
e-mail: dlaletin@mail.ru
version 1.0 January 2005

All corrections are welcome.
 " - tremolo
 / - slide down
 \ - slide up
 . - palm mute
 ~ - long sound
 x - rest
 p - pull off
 h - hammer on
 tr - trill
 () - ghost note, sustained note
 * - artificial harmonics
 b - bend


 Tuning from low to high: B E A D F# B


00:00 - Riff 1
================================================

|---------------------------------------------|
|---------------------------------------------|
|---------------------------------------------|
|---------------------------------------------|bass
|---------------------------------------------|
|-5~--------------------3~--------------------|
|
|---------------------------------------------|
|---------------------------------------------|
|---------------------------------------------|
|-7~-7~-7\5-5\3-3\2-2~--7~-7~-7\5-5\3-3\2-2~--|gtr 1
|---------------------------------------------|
|---------------------------------------------|


|---------------------------------------------|
|---------------------------------------------|
|---------------------------------------------|
|---------------------------------------------|bass
|---------------------------------------------|
|-1~--------------------0~--------------------|
|
|---------------------------------------------|
|---------------------------------------------|
|---------------------------------------------|
|-7~-7~-7\5-5\3-3\2-2~--7~-7~-7\5-5\3-3\2-2~--|gtr 1
|---------------------------------------------|
|---------------------------------------------|



00:13 - Riff 2
=================================================

|---------------------------------------------|
|---------------------------------------------|
|---------------------------------------------|
|---------------------------------------------|bass
|---------------------------------------------|
|-5~--------------------3~--------------------|
|
|---------------------------------------------|
|---------------------------------------------|
|---------------------------------------------|
|-7~-7~-7\5-5\3-3\2-2~--7~-7~-7\5-5\3-3\2-2~--|gtr 1
|---------------------------------------------|
|---------------------------------------------|
|
|---------------------------------------------|
|---------------------------------------------|
|---------------------------------------------|
|-77-x16----------------55-x16----------------|gtr 2
|-..--------------------..--------------------|
|---------------------------------------------|


|---------------------------------------------|
|---------------------------------------------|
|---------------------------------------------|
|---------------------------------------------|bass
|---------------------------------------------|
|-1~--------------------0~--------------------|
|
|---------------------------------------------|
|---------------------------------------------|
|---------------------------------------------|
|-7~-7~-7\5-5\3-3\2-2~--7~-7~-7\5-5\3-3\2-2~--|gtr 1
|---------------------------------------------|
|---------------------------------------------|
|
|---------------------------------------------|
|---------------------------------------------|
|---------------------------------------------|
|-33-x16----------------22-x16----------------|gtr 2
|-..--------------------..--------------------|
|---------------------------------------------|


00:25 - Riff 3
================================================

|---------------------------------------------|
|---------------------------------------------|
|---------------------------------------------|
|---------------------------------------------|bass
|---------------------------------------------|
|-5~--------------------3~--------------------|
|
|---------------------------------------------|
|---------------------------------------------|
|---------------------------------------------|
|-7~-7~-7\5-5\3-3\2-2~--7~-7~-7\5-5\3-3\2-2~--|gtr 1
|---------------------------------------------|
|---------------------------------------------|
|
|---------------------------------------------|
|---------------------------------------------|
|---------------------------------------------|
|-77-x16----------------55-x16----------------|gtr 2
|-..--------------------..--------------------|
|---------------------------------------------|
|
|---------------------------------------------|
|---------------------------------------------|
|-55-x16----------------44-x16----------------|
|-..--------------------..--------------------|gtr 3
|---------------------------------------------|
|---------------------------------------------|


|---------------------------------------------|
|---------------------------------------------|
|---------------------------------------------|
|---------------------------------------------|bass
|---------------------------------------------|
|-1~--------------------0~--------------------|
|
|---------------------------------------------|
|---------------------------------------------|
|---------------------------------------------|
|-7~-7~-7\5-5\3-3\2-2~--7~-7~-7\5-5\3-3\2-2~--|gtr 1
|---------------------------------------------|
|---------------------------------------------|
|
|---------------------------------------------|
|---------------------------------------------|
|---------------------------------------------|
|-33-x16----------------22-x16----------------|gtr 2
|-..--------------------..--------------------|
|---------------------------------------------|
|
|---------------------------------------------|
|---------------------------------------------|
|-77-x16----------------99-x16----------------|
|-..--------------------..--------------------|gtr 3
|---------------------------------------------|
|---------------------------------------------|


00:38 - Riff 3
================================================


00:51 - Riff 4a
================================================
|-----------------------------------------------------------------|
|-----------------------------------------------------------------|
|-----------------------------------------------------------------|
|-----------------------------------------------------------------|gtr 1
|-----------------------------------------------------------------|
|-5-5-5-5-5-5-5-5-5-5-5-5-5-5-5-5-3-3-3-3-3-3-3-3-3-3-3-3-3-3-3-3-|
|
|-----------------------------------------------------------------|
|-----------------------------------------------------------------|
|-----------------------------------------------------------------|
|-7-7-7-7-7-7-7-7-7-7-7-7-7-7-7-7-5-5-5-5-5-5-5-5-5-5-5-5-5-5-5-5-|gtr 2
|-----------------------------------------------------------------|
|-----------------------------------------------------------------|
|
|-----------------------------------------------------------------|
|-----------------------------------------------------------------|
|-5-5-5-5-4-4-4-4-5-5-5-5-4-4-4-4-5-5-5-5-4-4-4-4-5-5-5-5-4-4-4-4-|
|-----------------------------------------------------------------|gtr 3
|-----------------------------------------------------------------|
|-----------------------------------------------------------------|


|-----------------------------------------------------------------|
|-----------------------------------------------------------------|
|-----------------------------------------------------------------|
|-----------------------------------------------------------------|gtr 1
|-----------------------------------------------------------------|
|-1-1-1-1-1-1-1-1-1-1-1-1-1-1-1-1-0-0-0-0-0-0-0-0-0-0-0-0-0-0-0-0-|
|
|-----------------------------------------------------------------|
|-----------------------------------------------------------------|
|-----------------------------------------------------------------|
|-3-3-3-3-3-3-3-3-3-3-3-3-3-3-3-3-2-2-2-2-2-2-2-2-2-2-2-2-2-2-2-2-|gtr 2
|-----------------------------------------------------------------|
|-----------------------------------------------------------------|
|
|-----------------------------------------------------------------|
|-----------------------------------------------------------------|
|-5-5-5-5-4-4-4-4-5-5-5-5-4-4-4-4-5-5-5-5-4-4-4-4-5-5-5-5-4-4-4-4-|
|-----------------------------------------------------------------|gtr 3
|-----------------------------------------------------------------|
|-----------------------------------------------------------------|



01:08 - Riff 4b
================================================
|-----------------------------------------------------------------|
|-----------------------------------------------------------------|
|-----------------------------------------------------------------|
|-----------------------------------------------------------------|gtr 1
|-----------------------------------------------------------------|
|-5-5-5-5-5-5-5-5-5-5-5-5-5-5-5-5-3-3-3-3-3-3-3-3-3-3-3-3-3-3-3-3-|
|
|-----------------------------------------------------------------|
|-----------------------------------------------------------------|
|-5-5-5-5-5-5-5-5-5-5-5-5-5-5-5-5-7-7-7-7-7-7-7-7-7-7-7-7-7-7-7-7-|
|-7-7-7-7-7-7-7-7-7-7-7-7-7-7-7-7-5-5-5-5-5-5-5-5-5-5-5-5-5-5-5-5-|gtr 2
|-----------------------------------------------------------------|
|-----------------------------------------------------------------|
|
|-----------------------------------------------------------------|
|-----------------------------------------------------------------|
|-5-5-5-5-4-4-4-4-5-5-5-5-4-4-4-4-5-5-5-5-4-4-4-4-5-5-5-5-4-4-4-4-|
|-----------------------------------------------------------------|gtr 3
|-----------------------------------------------------------------|
|-----------------------------------------------------------------|


|-----------------------------------------------------------------|
|-----------------------------------------------------------------|
|-----------------------------------------------------------------|
|-----------------------------------------------------------------|gtr 1
|-----------------------------------------------------------------|
|-1-1-1-1-1-1-1-1-1-1-1-1-1-1-1-1-0-0-0-0-0-0-0-0-0-0-0-0-0-0-0-0-|
|
|-----------------------------------------------------------------|
|-----------------------------------------------------------------|
|-2-2-2-2-2-2-2-2-2-2-2-2-2-2-2-2-0-0-0-0-0-0-0-0-0-0-0-0-0-0-0-0-|
|-3-3-3-3-3-3-3-3-3-3-3-3-3-3-3-3-2-2-2-2-2-2-2-2-2-2-2-2-2-2-2-2-|gtr 2
|-----------------------------------------------------------------|
|-----------------------------------------------------------------|
|
|-----------------------------------------------------------------|
|-----------------------------------------------------------------|
|-5-5-5-5-4-4-4-4-5-5-5-5-4-4-4-4-5-5-5-5-4-4-4-4-5-5-5-5-4-4-4-4-|
|-----------------------------------------------------------------|gtr 3
|-----------------------------------------------------------------|
|-----------------------------------------------------------------|


01:25 - Riff 3 until the end
============================

  Visit MetalTabs.com for more metal tablature

bottom separator

Contact Us | Privacy Policy | Disclaimer | Legal Notice
Copyright © 2001-2014 MetalTabs.com. All Rights Reserved.