top separator

Home

Forum

What's New

Submit a Tab

FAQ

Links

Contact Us

Link to Us

MetalTabs.com logo

Bands

0-9

A

B

C

D

E

F

G

H

I

J

K

L

M

N

O

P

Q

R

S

T

U

V

W

X

Y

Z

Search

What

Where
 

Finntroll - "Trollhammaren" Guitar Tab

Plain Text Version
More Finntroll Tabs

Hits: 12421
Rated: 4.50 out of 5 (4 votes)
Updated: 2005-05-07 10:23:06

 

By:

Daniil

sendpm.gif

email.gif

Important note
This tab is available online because we obtained explicit permission from Finntroll or their label.


#----------------------------------PLEASE NOTE---------------------------------#
#This file is the author's own work and represents their interpretation of the #
#song. You may only use this file for private study, scholarship, or research. #
#Unless specified otherwise, this is NOT an official tab from the band members.#
#------------------------------------------------------------------------------#

  Visit MetalTabs.com for more metal tablature
  
FINNTROLL-Trollhammaren
Nattfodd-2004
Copyright Spinefarm Records
Transcribed by Daniil Laletin
e-mail: dlaletin@mail.ru
version 1.0 February 2005

All corrections are welcome.

 " - tremolo
 / - slide down
 \ - slide up
 . - palm mute
 ~ - long sound
 x - rest
 p - pull off
 h - hammer on
 tr - trill
 () - ghost note, sustained note
 * - artificial harmonics
 b - bend

 Tuning from low to high: D G C F A D

================================


 Acoustic intro (guitar + keyboard)
|---------------------------------------------------------------|
|---------------------------------------------------------------|
|---------------9---------------------------5--------------7----|
|-7-------------9----------7---3------------5--------------7-7--|
|-7-------------7----------7---3------------3--------------5-7--|
|-5------------------------5---1-----------------------------5--|
|
|---------------------------------------------------------------|
|--------------10-8--------------------------------8------------|
|---9-9-7-9~-9------9-7------------------------7-9---7----------|
|-7---------------------10-7~--7-9-10-9-7-9-10---------9-5-9-7~-|
|---------------------------------------------------------------|
|---------------------------------------------------------------|

|------------------------------------------------------------------|
|------------------------------------------------------------------|
|---------------9---------------------------5-----------7----------|
|-7-------------9----------7---3------------5-----------7-------7--|
|-7-------------7----------7---3------------3-----------5-------7--|
|-5------------------------5---1--------------------------------5--|
|
|------------------------------------------------------------------|
|--------------10-8---------------------------------8~-------------|
|---9-9-7-9~-9------9-7---------------------------------7----------|
|-7---------------------10-7~--7-9-10-9h10p9-7-9-10-------9-5-9-7~-|
|------------------------------------------------------------------|
|------------------------------------------------------------------|


 Fill 1
|-------------------|
|-------------------|
|-------------------|
|-------------------|
|7-7777777777777777-|
|5-5555555555555555-|
   ................


 Riff 1a
|-------------------------------------------------|
|-------------------------------------------------|
|-------------------------------------------------|
|-------------------------------55-55-------77-77-|
|-77-77-77-77-22-22-77-77-33-33-33-33-55-55-55-55-|
|-55-55-55-55-00-00-55-55-11-11-33-33-33-33-55-55-|

|-----------------------------------------------|
|-----------------------------------------------|
|-----------------------------------------------|
|-------------------------------55-55-77-77-2-4-|
|-77-77-77-77-22-22-77-77-33-33-33-33-55-55-0-2-|
|-55-55-55-55-00-00-55-55-11-11-33-33-55-55-----|


 Keyboard line under Riff 1a
|---------------------------------------------------------------|
|--------------10-8--------------------------------8------------|
|---9-9-7-9~-9------9-7------------------------7-9---7----------|
|-7---------------------10-7~--7-9-10-9-7-9-10---------9-5-9-7~-|
|---------------------------------------------------------------|
|---------------------------------------------------------------|

|----------------------------------------------------------------|
|--------------10-8----------------------------8~----------------|
|---9-9-7-9~-9------9-7----------------------------7-------------|
|-7---------------------10-7~--7-9-10-9-7-9-10-------9-5-9-7~--9-|
|----------------------------------------------------------------|
|----------------------------------------------------------------|



 Riff 2a (guitar + keyboard)
|--------------------------------------------------------------|
|--------------------------------------------------------------|
|--------------------------------------------------------------|
|--5-------7-------5-------7-------5-------7-----------------4-|
|--3-------5-------3-------5-------3-------5-----------------2-|
|--3-------5-------3-------5-------3-------5------5-7-5-3-5~---|
|
|--------------------------------------------------------------|
|------8---7~----------8---7~----------8---7~------------------|
|----9---9----9-7----9---9----9-7----9---9----9-7--------------|
|-10--------------10--------------10--------------7-9-7-5-7~-9-|
|--------------------------------------------------------------|
|--------------------------------------------------------------|

|--------------------------------------------------------------------|
|--------------------------------------------------------------------|
|--------------------------------------------------------------------|
|--5-------7-------5-------7-------5-------5--------------------*----|
|--3-------5-------3-------5-------3-------2-------------------(8~)--|
|--3-------5-------3-------5-------3-------3------5-7-5-3-5~---(6~)--|
|
|--------------------------------------------------------------------|
|------8---7~----------8---7~----------8---7~------------------------|
|----9---9----9-7----9---9----9-7----9---9----9-7---------------*----|
|-10--------------10--------------10--------------7-9-7-5-7~---(8~)--|
|--------------------------------------------------------------------|
|--------------------------------------------------------------------|
 * - sometimes don't play this notes


 Fill 2
|-------|
|-------|
|-------|
|-------|
|-7-7-7-|
|-5-5-5-|
  . . .

 Riff 1b
|-------------------------------------------------|
|-------------------------------------------------|
|-------------------------------------------------|
|----------------------------------55----------77-|
|----77----77----22----77----33-33-33----55-55-55-|
|-55-55-55-55-00-00-55-55-11-11-..-33-33-33-..-55-|
  ..    ..    ..    ..    ..          ..
|-----------------------------------------------|
|-----------------------------------------------|
|-----------------------------------------------|
|----------------------------------55----77-2-4-|
|----77----77----22----77----33-33-33-55-55-0-2-|
|-55-55-55-55-00-00-55-55-11-11-..-33-..-55-----|
  ..    ..    ..    ..    ..


 Fill 3
|-----------------------------------------|
|-----------------------------------------|
|-----------------------------------------|
|-----------------------------------------|
|-7-----7-7--7-5-5--7-----7-7--7-5---8~---|
|-5-555-5-5--5-3-3--5-555-5-5--5-3---6~---|
  . ... . .  .      . ... . .  .


 Riff 1c
|-------------------------------------------------|
|-------------------------------------------------|
|-------------------------------------------------|
|-------------------------------55-55-------77-77-|
|-77-77-77-77-22-22-77-77-33-33-33-33-55-55-55-55-|
|-55-55-55-55-00-00-55-55-11-11-33-33-33-33-55-55-|
  .. .. .. .. .. .. .. .. .. .. .. .. .. .. .. ..
|-----------------------------------------------|
|-----------------------------------------------|
|-----------------------------------------------|
|-------------------------------55-55-77-77-2-4-|
|-77-77-77-77-22-22-77-77-33-33-33-33-55-55-0-2-|
|-55-55-55-55-00-00-55-55-11-11-33-33-55-55-----|
  .. .. .. .. .. .. .. .. .. .. .. .. .. ..



 Riff 3
|------------------------------------------------------|
|------------------------------------------------------|
|------------------------------------------------------|
|-5------7------5------7------5------7------2------2-4-|
|-3-3333-5-5555-3-3333-5-5555-3-3333-5-5555-0-0000-0-2-|
|------------------------------------------------------|

|-------------------------------------------------------|
|-------------------------------------------------------|
|-------------------------------------------------------|
|-5------7------5------7------5-------------------------|
|-3-3333-5-5555-3-3333-5-5555-3-3333-5--------------7---|
|------------------------------------3-3333-5-7-5-3-5~--|
 - the keyobard line here, is the same as on the Riff 2



Riff 4a (guitar + keyboard)
|---------------------------------------------------------------------------|
|---------------------------------------------------------------------------|
|---------------------------------------------------------------------------|
|--7-----------------5-----------------7------------------5---------5-------|
|--7-----------------3-----------------5------------------3---------2-------|
|--5-----------------3-----------------5------------------3---------3-------|
|
|---------------------------------------------------------------------------|
|---------------------------------------------------10----------------------|
|---------------9-----------------9---10-9-7-6-7-10----10-9---------7-------|
|-10-9-7-6-7-10---7-10-9-7-6-7-10---7-----------------------10-7-10---9-5-9-|
|---------------------------------------------------------------------------|
|---------------------------------------------------------------------------|


 Riff 4b (guitars 1&2 + keyboard)
|---------------------------------------------------------------------------|
|---------------------------------------------------------------------------|
|---------------------------------------------------------------------------|
|---------------------------------------------------------------------------|
|---------------------------------------------------------------------------|
|--5-5-5-5-5-5-5-5-5-5-5-5-5-5-5-5-5-5-5-5-5-5-5-5-5-5-5--5-5-5-5-5-5-5-5-5-|
|  . . . . . . . . . . . . . . . . . . . . . . . . . . .  . . . . . . . . .
|---------------------------------------------------------------------------|
|---------------------------------------------------------------------------|
|---------------------------------------------------------------------------|
|--7-----------------5-----------------7------------------5---------5-------|
|--7-----------------3-----------------5------------------3---------2-------|
|--5-----------------3-----------------5------------------3---------3-------|
|
|---------------------------------------------------------------------------|
|---------------------------------------------------10----------------------|
|---------------9-----------------9---10-9-7-6-7-10----10-9---------7-------|
|-10-9-7-6-7-10---7-10-9-7-6-7-10---7-----------------------10-7-10---9-5-9-|
|---------------------------------------------------------------------------|
|---------------------------------------------------------------------------|



 Fill 4                           x4
|-----------------------------------|
|-----------------------------------|
|-----------------------------------|
|-----------------------------------|
|-7-----7-7--7-5-5--7-----7-7--7-5--|
|-5-555-5-5--5-3-3--5-555-5-5--5-3--|
  . ... . .  .      . ... . .  .




 Riff 5
|---------------------------------------|
|---------------------------------------|
|-9-999--10\9-9~----9-999--10\9-9~--7~--|
|---------------------------------------|gtr 1
|---------------------------------------|
|---------------------------------------|
|
|---------------------------------------|
|---------------------------------------|
|---------------------------------------|
|---------------------------------------|gtr 2
|-7-----7/8\7-7~----7-----7/8\7-7~--5~--|
|-5-555-5/6\5-5~----5-555-5/6\5-5~--3~--|

|--------------------------------------------|
|--------------------------------------------|
|-9-999--10\9-9~----10-101010-12\10-10~--7~--|
|--------------------------------------------|gtr 1
|--------------------------------------------|
|--------------------------------------------|
|
|--------------------------------------------|
|--------------------------------------------|
|--------------------------------------------|
|--------------------------------------------|gtr 2
|-7-----7/8\7-7~-----8--------8/10\8-8~--5~--|
|-5-555-5/6\5-5~-----6---666--6/-8\6-6~--3~--|




 Riff 6 (guitar + keyboard)
|---------------------------------------------------------------------------|
|---------------------------------------------------------------------------|
|---------------------------------------------------------------------------|
|--------------------555-555-555-555---777-777-777-777----555-555-----------|
|--777-777-777-777---333-333-333-333---555-555-555-555----333-333---555-555-|
|--555-555-555-555---...-...-...-...---...-...-...-...----...-...---333-333-|
|  ... ... ... ...                                                 ... ...
|---------------------------------------------------------------------------|
|---------------------------------------------------10----------------------|
|---------------9-----------------9---10-9-7-6-7-10----10-9---------7-------|
|-10-9-7-6-7-10---7-10-9-7-6-7-10---7-----------------------10-7-10---9-5-9-|
|---------------------------------------------------------------------------|
|---------------------------------------------------------------------------|


 Fill 5 - after Riff 6
|-------------|
|-------------|
|-------------|
|-------------|
|-8~----7-7-7-|
|-6~----5-5-5-|



 Riff 2b (guitar + keyboard)
|--------------------------------------------------------------|
|--------------------------------------------------------------|
|--------------------------------------------------------------|
|--5-------7-------5-------7-------5-------7-----------------4-|
|--3-------5-------3-------5-------3-------5-----------------2-|
|--3-------5-------3-------5-------3-------5------5-7-5-3-5~---|
|
|--------------------------------------------------------------|
|------8---7~----------8---7~----------8---7~------------------|
|----9---9----9-7----9---9----9-7----9---9----9-7--------------|
|-10--------------10--------------10--------------7-9-7-5-7~-9-|
|--------------------------------------------------------------|
|--------------------------------------------------------------|

|-----------------------------------------------------------|
|-----------------------------------------------------------|
|-----------------------------------------------------------|
|--5-------7-------5-------7-------5------------------------|
|--3-3333--5-5555--3-3333--5-5555--3-3333--5------7-9-7-5-7-|
|------------------------------------------3-3333-5-7-5-3-5-|
|                                                 . . . . .
|-----------------------------------------------------------|
|------8---7~----------8---7~----------8---7~---------------|
|----9---9----9-7----9---9----9-7----9---9----9-7-----------|
|-10--------------10--------------10--------------7-9-7-5-7-|
|-----------------------------------------------------------|
|-----------------------------------------------------------|
                                                Trollhammaren!!!
 The End 8-(

  Visit MetalTabs.com for more metal tablature

bottom separator

Contact Us | Privacy Policy | Disclaimer | Legal Notice
Copyright © 2001-2014 MetalTabs.com. All Rights Reserved.