top separator

Home

Forum

What's New

Submit a Tab

FAQ

Links

Contact Us

Link to Us

MetalTabs.com logo

Bands

0-9

A

B

C

D

E

F

G

H

I

J

K

L

M

N

O

P

Q

R

S

T

U

V

W

X

Y

Z

Search

What

Where
 

Disavowed - "Unfolding Disposition" Guitar Tab

Plain Text Version
More Disavowed Tabs

Hits: 3277
Rated: 5.00 out of 5 (1 vote)
Updated: 2006-01-07 22:14:00

 

By:

Yura

sendpm.gif

email.gif

Important note
This tab is available online because we obtained explicit permission from Disavowed or their label.


#----------------------------------PLEASE NOTE---------------------------------#
#This file is the author's own work and represents their interpretation of the #
#song. You may only use this file for private study, scholarship, or research. #
#Unless specified otherwise, this is NOT an official tab from the band members.#
#------------------------------------------------------------------------------#

  Visit MetalTabs.com for more metal tablature
  
Song : UNFOLDING DISPOSITION
Band : DISAVOWED
ALBUM : PERCEPTIVE DECEPTION
Copyright Unique Leader Records 2001

Version 2.0 (January'06)
Transcribed by : Yura Kowalchuk
       contact : yura_kowalchuk@mail.ru
URL: [www.blood-scrapes.nm.ru]

::TABULATURE LEGEND::
 " - tremolo             h - hammer on
 ~ - vibrato             \ - slide down
 p - pull off            / - slide down
 tr - trill              ^ - pinch harmonics
 = - sustained note      b - bend string
 p.m. - palm muting      t - tapping

Tuning is D [D, G, C, F, A, D]

[Intro]
||-------------------------------------------|
||-------------------------------------------|
||-------------------------------------------|
||-------------------------------------------|
||-6-5-4-3-22222222---------11111111---------|
||-4-3-2-1----------0-2-3-2----------0-1-2-1-|
|  . . . .          . . . .          . . . . |
||-------------------------------------------|
||-------------------------------------------|
||-------------------------------------------|
||---------4----------------3----------------|
||-6-5-4-3-2--------2-4-5-4-1--------2-3-4-3-|
||-4-3-2-1----------0-2-3-2----------0-1-2-1-|
   . . . . .        . . . . .        . . . .

            [Riff 1 (x4)]
----------||----------------------------------------------||
----------||o--------------------------------------------o||
----------||----------------------------------------------||
----------||----------------------------------------------||
-66-5-4-3-||o-22222222---------11111111---------66-5-4-3-o||
-44-3-2-1-||-----------0-2-3-2----------0-1-2-1-44-3-2-1--||
 .. . . . |            . . . .          . . . . .. . . .   |
----------||----------------------------------------------||
----------||o--------------------------------------------o||
----------||----------------------------------------------||
----------||----------------------------------------------||
-66-5-4-3-||o-22222222---------11111111---------66-5-4-3-o||
-44-3-2-1-||-----------0-2-3-2----------0-1-2-1-44-3-2-1--||
 .. . . .              . . . .          . . . . .. . . .

[Riff 2 (x2)]
||-----------------------------------------------|-
||o----------------------------------------------|-
||-----------------------------------------------|-
||-------------------------------------------^---|-
||o------------------------------------------2~--|-
||--000022221111000022221111000022221111-0-0-----|-
                                         . .

-------------------------------------------------||
------------------------------------------------o||
-------------------------------------------------||
-------------------------------------------------||
--------------------------------------3-3-3--3--o||
-000022221111000022221111000022221111-4-4-4--1---||
                                      . .

[RIFF 1 (x3)]

[Outro 1]
|--------------------------------------------|
|--------------------------------------------|
|--------------------------------------------|
|--------------------------------------------|
|-22222222---------11111111---------66-5-4-3-|
|----------0-2-3-2----------0-1-2-1-44-3-2-1-|
|          . . . .          . . . . .. . . . |
|--------------------------------------------|
|--------------------------------------------|
|--------------------------------------------|
|--------------------------------------------|
|-22222222---------11111111---------6----4---|
|----------0-2-3-2----------0-1-2-1-4----2---|
           . . . .          . . . . .    .

[Riff 3 (x2)]
||----------------------|------------------------
||o---------------------|------------------------
||----------------------|------------------------
||--6---------5---------|-6----------------------
||o-4---6-7-6-3---5-6-5-|-4---6-7-6-44443333-----
||----0-4-5-4---0-3-4-3-|---0-4-5-4---------4444-
      . . . .   . . . .     . . . .

---------------------|-----------------------||
---------------------|----------------------o||
---------------------|-----------------------||
-6---------5---------|-6---------------------||
-4---6-7-6-3---5-6-5-|-4---6-7-6-44443333-3-o||
---0-4-5-4---0-3-4-3-|---0-4-5-4----------4--||
   . . . .   . . . .     . . . .

[Outro 2]
||-------------------------------------|-
||-------------------------------------|-
||-------------------------------------|-
||-------------------------------------|-
||-4-4-4444-4-4-4444-5-5-5555-5-5-5555-|-
||-2-2------2-2------3-3------3-3------|-
   . .      . .      . .      . .

-|----------------------------------------|-
-|----------------------------------------|-
-|----------------------------------------|-
-|----------------------------------------|-
-|-4-4-4444-4-4-4444-5-5-5555555544442222-|-
-|-2-2------2-2------3-3------------------|-
   . .      . .      . .

-|-------------------------------------|-
-|-------------------------------------|-
-|-------------------------------------|-
-|-------------------------------------|-
-|-4-4-4444-4-4-4444-5-5-5555-5-5-5555-|-
-|-2-2------2-2------3-3------3-3------|-
   . .      . .      . .      . .

-|-----------------------------------||
-|-----------------------------------||
-|-----------------------------------||
-|-----------------------------------||
-|-4-4-4444-4-4-4444-5-5-5555-5-5-4--||
-|-2-2------2-2------3-3------3-3-2--||
   . .      . .      . .      . . .

[RIFF 3 (x2)] [RIFF 1 (x3)]

[Outro 3]
|----------------------------------------------
|----------------------------------------------
|----------------------------------------------
|----------------------------------------------
|-22222222---------11111111--------------------
|----------0-2-3-2----------0-1-2-1-3/...8\...-
|           . . . .          . . . .
|----------------------------------------------
|----------------------------------------------
|----------------------------------------------
|----------------------------------------------
|-22222222---------11111111--------------------
|----------0-2-3-2----------0-1-2-1-3/...8\...-
            . . . .          . . . .

-|------------------|------------------------|
-|------------------|------------------------|
-|------------------|------------------------|
-|------------------|------------------------|
-|-33-3-------------|-3--3---------33-3-22-2-|
-|-11-1-------------|-1--1---------11-1-00-0-|
 | .. .             | .  .         .. . .. . |
-|------------------|------------------------|
-|------------------|------------------------|
-|------------------|------------------------|
-|------------------|------------------------|
-|-33-3-2-3-4-3-2-3-|-33-3-2-33-44-3-2-3-----|
-|-11-1-0-1-2-1-0-1-|-11-1-0-11-22-1-0-1-----|
   .. . . . . . . .   .. . . .. .. . . .

[Riff 4a (x2)]
||-------------------|--------------------|-
||o------------------|--------------------|-
||-------------------|--------------------|-
||-------------------|--------------------|-
||o-33-3-2-3-4-3-2-3-|-33-3-2-33-44-3-2-3-|-
||--11-1-0-1-2-1-0-1-|-11-1-0-11-22-1-0-1-|-
|   .. . . . . . . . | .. . . .. .. . . . |
||-------------------|--------------------|-
||o------------------|--------------------|-
||-------------------|--------------------|-
||-------------------|--------------------|-
||o-33-3-2-3-4-3-2-3-|-33-3-2-33-44-3-2-3-|-
||--11-1-0-1-2-1-0-1-|-11-1-0-11-22-1-0-1-|-
    .. . . . . . . .   .. . . .. .. . . .

-|------------------|-------------------||
-|------------------|------------------o||
-|------------------|-------------------||
-|------------------|---5---------------||
-|-33-3-2-3-4-3-2-3-|-3-3-5-6-5-3-3-3--o||
-|-11-1-0-1-2-1-0-1-|-1-3-3-4-3-4-4-1---||
 |                  |                    |
-|------------------|-------------------||
-|------------------|------------------o||
-|------------------|-------------------||
-|------------------|---5---------------||
-|-33-3-2-3-4-3-2-3-|-3-3-5-6-5-3-3-3--o||
-|-11-1-0-1-2-1-0-1-|-1-3-3-4-3-4-4-1---||

[Riff 4b]
||------------------|----------------------|-
||------------------|----------------------|-
||------------------|----------------------|-
||------------------|------------------^---|-
||-33-3-2-3-4-3-2-3-|-33-3-2-33-44-3-2-1~~-|-
||-11-1-0-1-2-1-0-1-|-11-1-0-11-22-1-0-----|-
   .. . . . . . . .   .. . . .. .. . .

-|------------------|------------------|-
-|------------------|------------------|-
-|------------------|------------------|-
-|------------------|---5--------------|-
-|-33-3-2-3-4-3-2-3-|-3-3-5-6-5-3-3-3--|-
-|-11-1-0-1-2-1-0-1-|-1-3-3-4-3-4-4-1--|-
   .. . . . . . . .   . . . . .

-|------------------|-----------------------|-
-|------------------|-----------------------|-
-|------------------|-----------------------|-
-|------------------|-----------------------|-
-|-33-3-2-3-4-3-2-3-|-33-3-2-33-44-33-22-33-|-
-|-11-1-0-1-2-1-0-1-|-11-1-0-11-22-11-00-11-|-
   .. . . . . . . .   .. . . .. .. .. .. ..

-|------------------|------------------||
-|------------------|------------------||
-|------------------|------------------||
-|------------------|---5--------------||
-|-33-3-2-3-4-3-2-3-|-3-3-5-6-5-3-3-3--||
-|-11-1-0-1-2-1-0-1-|-1-3-3-4-3-4-4-1--||
   .. . . . . . . .   . . . . .

[RIFF 2 (x2)]

[Riff 5a (x2)]
||---------------------------------------------------|-
||o--------------------------------------------------|-
||---------------------------------------------------|-
||---------------------------------------------------|-
||o-4444--------4444----------------5555----55554444-|-
||------22225555----2222555533336666----3333---------|-
|                                                    |
||---------------------------------------------------|-
||o--------------------------------------------------|-
||---------------------------------------------------|-
||---------------------------------------------------|-
||o-4-4-4444----4-4-4444-----5-5-5555---5-5-5555-----|-
||--2-2---------2-2----------3-3--------3-3----------|-
    . .         . .          . .        . .

---------------------------------------------------||
--------------------------------------------------o||
---------------------------------------------------||
---------------------------------------------------||
-4444--------4444----------------5555555544442222-o||
-----22225555----2222555533336666------------------||
                                                    |
---------------------------------------------------||
--------------------------------------------------o||
---------------------------------------------------||
---------------------------------------------------||
-4-4-4444----4-4-4444-----5-5-5555---5-5-5555-----o||
-2-2---------2-2----------3-3--------3-3-----------||
 . .         . .          . .        . .

[Riff 5b (x2)]
||---------------------------------------------------|-
||o--------------------------------------------------|-
||---------------------------------------------------|-
||---------------------------------------------------|-
||o-4444--------4444----------------5555----55554444-|-
||------22225555----2222555533336666----3333---------|-

---------------------------------------------------||
--------------------------------------------------o||
---------------------------------------------------||
---------------------------------------------------||
-4444--------4444----------------5555555544442222-o||
-----22225555----2222555533336666------------------||

[RIFF 2 (x2)] [RIFF 4a (x2)]

[Outro 3]
||-------------------------------------|-
||-------------------------------------|-
||-------------------------------------|-
||-------------------------------------|-
||-4-4-4444-4-4-4444-5-5-5555-5-5-5555-|-
||-2-2------2-2------3-3------3-3------|-
   . .      . .      . .      . .

-|----------------------------------------||
-|----------------------------------------||
-|----------------------------------------||
-|----------------------------------------||
-|-4-4-4444-4-4-4444-5-5-5555555544442222-||
-|-2-2------2-2------3-3------------------||
   . .      . .      . .

[RIFF 5b]

[Riff 6 (x2)]
||----------------------------|----------------------------||
||o---------------------------|---------------------------o||
||----------------------------|----------------------------||
||----------------------------|----------------------------||
||o-4444-----7-4444-----7-3-4-|-4444-----7-4444-----7-3-4-o||
||-------2-2-5------2-2-5-1-2-|------2-2-5------2-2-5-1-2--||
         . . .      . . . . .        . . .      . . . . .

[RIFF 4a (x2)]

END OF SONG

  Visit MetalTabs.com for more metal tablature

bottom separator

Contact Us | Privacy Policy | Disclaimer | Legal Notice
Copyright © 2001-2014 MetalTabs.com. All Rights Reserved.